ISO-10303-21;
HEADER;
/* Generated by software containing ST-Developer
 * from STEP Tools, Inc. (www.steptools.com) 
 */
/* OPTION: using custom schema-name function */

FILE_DESCRIPTION(
/* description */ (''),
/* implementation_level */ '2;1');

FILE_NAME(
/* name */ 'N0472-0375F-QC12_Basic.stp',
/* time_stamp */ '2021-12-28T17:00:52+06:00',
/* author */ (''),
/* organization */ (''),
/* preprocessor_version */ 'ST-DEVELOPER v16.7',
/* originating_system */ 'SIEMENS PLM Software NX 12.0',
/* authorisation */ '');

FILE_SCHEMA (('AUTOMOTIVE_DESIGN { 1 0 10303 214 3 1 1 1 }'));
ENDSEC;

DATA;
#10=CONSTRUCTIVE_GEOMETRY_REPRESENTATION_RELATIONSHIP(
'supplemental geometry','',#34,#11);
#11=CONSTRUCTIVE_GEOMETRY_REPRESENTATION('supplemental geometry',(#351,
#352,#353),#530);
#12=GEOMETRICALLY_BOUNDED_WIREFRAME_SHAPE_REPRESENTATION(
'inpu3198EBCCtjyd-None',(#35),#530);
#13=PROPERTY_DEFINITION_REPRESENTATION(#17,#15);
#14=PROPERTY_DEFINITION_REPRESENTATION(#18,#16);
#15=REPRESENTATION('',(#19),#530);
#16=REPRESENTATION('',(#20),#530);
#17=PROPERTY_DEFINITION('pmi validation property','',#25);
#18=PROPERTY_DEFINITION('pmi validation property','',#25);
#19=VALUE_REPRESENTATION_ITEM('number of annotations',COUNT_MEASURE(0.));
#20=VALUE_REPRESENTATION_ITEM('number of views',COUNT_MEASURE(0.));
#21=SHAPE_REPRESENTATION_RELATIONSHIP('None',
'relationship between inpu3198EBCCtjyd-None and inpu3198EBCCtjyd-None',
#34,#23);
#22=SHAPE_REPRESENTATION_RELATIONSHIP('None',
'relationship between inpu3198EBCCtjyd-None and inpu3198EBCCtjyd-None',
#34,#12);
#23=ADVANCED_BREP_SHAPE_REPRESENTATION('inpu3198EBCCtjyd-None',(#46,#47),
#530);
#24=SHAPE_DEFINITION_REPRESENTATION(#25,#34);
#25=PRODUCT_DEFINITION_SHAPE('','',#26);
#26=PRODUCT_DEFINITION(' ','',#28,#27);
#27=PRODUCT_DEFINITION_CONTEXT('part definition',#33,'design');
#28=PRODUCT_DEFINITION_FORMATION_WITH_SPECIFIED_SOURCE(' ',' ',#30,
 .NOT_KNOWN.);
#29=PRODUCT_RELATED_PRODUCT_CATEGORY('part','',(#30));
#30=PRODUCT('inpu3198EBCCtjyd','inpu3198EBCCtjyd',' ',(#31));
#31=PRODUCT_CONTEXT(' ',#33,'mechanical');
#32=APPLICATION_PROTOCOL_DEFINITION('international standard',
'automotive_design',2010,#33);
#33=APPLICATION_CONTEXT(
'core data for automotive mechanical design processes');
#34=SHAPE_REPRESENTATION('inpu3198EBCCtjyd-None',(#350),#530);
#35=GEOMETRIC_CURVE_SET('None',(#447,#448,#449));
#36=SURFACE_STYLE_USAGE(.BOTH.,#38);
#37=SURFACE_STYLE_USAGE(.BOTH.,#39);
#38=SURFACE_SIDE_STYLE('',(#40));
#39=SURFACE_SIDE_STYLE('',(#41));
#40=SURFACE_STYLE_FILL_AREA(#42);
#41=SURFACE_STYLE_FILL_AREA(#43);
#42=FILL_AREA_STYLE('',(#44));
#43=FILL_AREA_STYLE('',(#45));
#44=FILL_AREA_STYLE_COLOUR('',#349);
#45=FILL_AREA_STYLE_COLOUR('',#349);
#46=MANIFOLD_SOLID_BREP('NOCUT',#48);
#47=MANIFOLD_SOLID_BREP('NOCUT',#49);
#48=CLOSED_SHELL('',(#50,#51,#52,#53,#54,#55,#56,#57,#58,#59));
#49=CLOSED_SHELL('',(#60,#61,#62,#63,#64,#65));
#50=ADVANCED_FACE('',(#82),#66,.T.);
#51=ADVANCED_FACE('',(#83),#67,.T.);
#52=ADVANCED_FACE('',(#84),#68,.T.);
#53=ADVANCED_FACE('',(#85),#69,.T.);
#54=ADVANCED_FACE('',(#86),#70,.T.);
#55=ADVANCED_FACE('',(#87),#71,.T.);
#56=ADVANCED_FACE('',(#88),#72,.T.);
#57=ADVANCED_FACE('',(#89),#73,.T.);
#58=ADVANCED_FACE('',(#90),#74,.F.);
#59=ADVANCED_FACE('',(#91),#75,.T.);
#60=ADVANCED_FACE('',(#92),#76,.T.);
#61=ADVANCED_FACE('',(#93),#77,.T.);
#62=ADVANCED_FACE('',(#94),#78,.T.);
#63=ADVANCED_FACE('',(#95),#79,.T.);
#64=ADVANCED_FACE('',(#96),#80,.T.);
#65=ADVANCED_FACE('',(#97),#81,.F.);
#66=PLANE('',#354);
#67=PLANE('',#355);
#68=PLANE('',#356);
#69=PLANE('',#357);
#70=PLANE('',#358);
#71=PLANE('',#359);
#72=PLANE('',#360);
#73=PLANE('',#361);
#74=PLANE('',#362);
#75=PLANE('',#363);
#76=PLANE('',#364);
#77=PLANE('',#365);
#78=PLANE('',#366);
#79=PLANE('',#367);
#80=PLANE('',#368);
#81=PLANE('',#369);
#82=FACE_OUTER_BOUND('',#98,.T.);
#83=FACE_OUTER_BOUND('',#99,.T.);
#84=FACE_OUTER_BOUND('',#100,.T.);
#85=FACE_OUTER_BOUND('',#101,.T.);
#86=FACE_OUTER_BOUND('',#102,.T.);
#87=FACE_OUTER_BOUND('',#103,.T.);
#88=FACE_OUTER_BOUND('',#104,.T.);
#89=FACE_OUTER_BOUND('',#105,.T.);
#90=FACE_OUTER_BOUND('',#106,.T.);
#91=FACE_OUTER_BOUND('',#107,.T.);
#92=FACE_OUTER_BOUND('',#108,.T.);
#93=FACE_OUTER_BOUND('',#109,.T.);
#94=FACE_OUTER_BOUND('',#110,.T.);
#95=FACE_OUTER_BOUND('',#111,.T.);
#96=FACE_OUTER_BOUND('',#112,.T.);
#97=FACE_OUTER_BOUND('',#113,.T.);
#98=EDGE_LOOP('',(#114,#115,#116,#117));
#99=EDGE_LOOP('',(#118,#119,#120,#121));
#100=EDGE_LOOP('',(#122,#123,#124,#125));
#101=EDGE_LOOP('',(#126,#127,#128,#129,#130,#131,#132,#133));
#102=EDGE_LOOP('',(#134,#135,#136,#137));
#103=EDGE_LOOP('',(#138,#139,#140,#141));
#104=EDGE_LOOP('',(#142,#143,#144,#145));
#105=EDGE_LOOP('',(#146,#147,#148,#149,#150,#151,#152,#153));
#106=EDGE_LOOP('',(#154,#155,#156,#157));
#107=EDGE_LOOP('',(#158,#159,#160,#161));
#108=EDGE_LOOP('',(#162,#163,#164,#165));
#109=EDGE_LOOP('',(#166,#167,#168,#169));
#110=EDGE_LOOP('',(#170,#171,#172,#173));
#111=EDGE_LOOP('',(#174,#175,#176,#177));
#112=EDGE_LOOP('',(#178,#179,#180,#181));
#113=EDGE_LOOP('',(#182,#183,#184,#185));
#114=ORIENTED_EDGE('',*,*,#210,.T.);
#115=ORIENTED_EDGE('',*,*,#211,.F.);
#116=ORIENTED_EDGE('',*,*,#212,.F.);
#117=ORIENTED_EDGE('',*,*,#213,.T.);
#118=ORIENTED_EDGE('',*,*,#214,.T.);
#119=ORIENTED_EDGE('',*,*,#215,.F.);
#120=ORIENTED_EDGE('',*,*,#210,.F.);
#121=ORIENTED_EDGE('',*,*,#216,.F.);
#122=ORIENTED_EDGE('',*,*,#217,.T.);
#123=ORIENTED_EDGE('',*,*,#218,.F.);
#124=ORIENTED_EDGE('',*,*,#214,.F.);
#125=ORIENTED_EDGE('',*,*,#219,.T.);
#126=ORIENTED_EDGE('',*,*,#212,.T.);
#127=ORIENTED_EDGE('',*,*,#220,.T.);
#128=ORIENTED_EDGE('',*,*,#217,.F.);
#129=ORIENTED_EDGE('',*,*,#221,.T.);
#130=ORIENTED_EDGE('',*,*,#222,.T.);
#131=ORIENTED_EDGE('',*,*,#223,.T.);
#132=ORIENTED_EDGE('',*,*,#224,.F.);
#133=ORIENTED_EDGE('',*,*,#225,.T.);
#134=ORIENTED_EDGE('',*,*,#226,.T.);
#135=ORIENTED_EDGE('',*,*,#224,.T.);
#136=ORIENTED_EDGE('',*,*,#227,.T.);
#137=ORIENTED_EDGE('',*,*,#228,.T.);
#138=ORIENTED_EDGE('',*,*,#227,.F.);
#139=ORIENTED_EDGE('',*,*,#223,.F.);
#140=ORIENTED_EDGE('',*,*,#229,.T.);
#141=ORIENTED_EDGE('',*,*,#230,.T.);
#142=ORIENTED_EDGE('',*,*,#231,.T.);
#143=ORIENTED_EDGE('',*,*,#232,.T.);
#144=ORIENTED_EDGE('',*,*,#228,.F.);
#145=ORIENTED_EDGE('',*,*,#230,.F.);
#146=ORIENTED_EDGE('',*,*,#213,.F.);
#147=ORIENTED_EDGE('',*,*,#225,.F.);
#148=ORIENTED_EDGE('',*,*,#226,.F.);
#149=ORIENTED_EDGE('',*,*,#232,.F.);
#150=ORIENTED_EDGE('',*,*,#233,.T.);
#151=ORIENTED_EDGE('',*,*,#221,.F.);
#152=ORIENTED_EDGE('',*,*,#219,.F.);
#153=ORIENTED_EDGE('',*,*,#216,.T.);
#154=ORIENTED_EDGE('',*,*,#229,.F.);
#155=ORIENTED_EDGE('',*,*,#222,.F.);
#156=ORIENTED_EDGE('',*,*,#233,.F.);
#157=ORIENTED_EDGE('',*,*,#231,.F.);
#158=ORIENTED_EDGE('',*,*,#211,.T.);
#159=ORIENTED_EDGE('',*,*,#215,.T.);
#160=ORIENTED_EDGE('',*,*,#218,.T.);
#161=ORIENTED_EDGE('',*,*,#220,.F.);
#162=ORIENTED_EDGE('',*,*,#234,.T.);
#163=ORIENTED_EDGE('',*,*,#235,.T.);
#164=ORIENTED_EDGE('',*,*,#236,.F.);
#165=ORIENTED_EDGE('',*,*,#237,.T.);
#166=ORIENTED_EDGE('',*,*,#238,.T.);
#167=ORIENTED_EDGE('',*,*,#239,.T.);
#168=ORIENTED_EDGE('',*,*,#234,.F.);
#169=ORIENTED_EDGE('',*,*,#240,.F.);
#170=ORIENTED_EDGE('',*,*,#241,.F.);
#171=ORIENTED_EDGE('',*,*,#240,.T.);
#172=ORIENTED_EDGE('',*,*,#237,.F.);
#173=ORIENTED_EDGE('',*,*,#242,.F.);
#174=ORIENTED_EDGE('',*,*,#243,.F.);
#175=ORIENTED_EDGE('',*,*,#242,.T.);
#176=ORIENTED_EDGE('',*,*,#236,.T.);
#177=ORIENTED_EDGE('',*,*,#244,.F.);
#178=ORIENTED_EDGE('',*,*,#245,.F.);
#179=ORIENTED_EDGE('',*,*,#244,.T.);
#180=ORIENTED_EDGE('',*,*,#235,.F.);
#181=ORIENTED_EDGE('',*,*,#239,.F.);
#182=ORIENTED_EDGE('',*,*,#245,.T.);
#183=ORIENTED_EDGE('',*,*,#238,.F.);
#184=ORIENTED_EDGE('',*,*,#241,.T.);
#185=ORIENTED_EDGE('',*,*,#243,.T.);
#186=VERTEX_POINT('',#454);
#187=VERTEX_POINT('',#455);
#188=VERTEX_POINT('',#457);
#189=VERTEX_POINT('',#459);
#190=VERTEX_POINT('',#463);
#191=VERTEX_POINT('',#464);
#192=VERTEX_POINT('',#469);
#193=VERTEX_POINT('',#470);
#194=VERTEX_POINT('',#476);
#195=VERTEX_POINT('',#478);
#196=VERTEX_POINT('',#480);
#197=VERTEX_POINT('',#482);
#198=VERTEX_POINT('',#486);
#199=VERTEX_POINT('',#488);
#200=VERTEX_POINT('',#492);
#201=VERTEX_POINT('',#496);
#202=VERTEX_POINT('',#504);
#203=VERTEX_POINT('',#505);
#204=VERTEX_POINT('',#507);
#205=VERTEX_POINT('',#509);
#206=VERTEX_POINT('',#513);
#207=VERTEX_POINT('',#514);
#208=VERTEX_POINT('',#519);
#209=VERTEX_POINT('',#523);
#210=EDGE_CURVE('',#186,#187,#246,.T.);
#211=EDGE_CURVE('',#188,#187,#247,.T.);
#212=EDGE_CURVE('',#189,#188,#248,.T.);
#213=EDGE_CURVE('',#189,#186,#249,.T.);
#214=EDGE_CURVE('',#190,#191,#250,.T.);
#215=EDGE_CURVE('',#187,#191,#251,.T.);
#216=EDGE_CURVE('',#190,#186,#252,.T.);
#217=EDGE_CURVE('',#192,#193,#253,.T.);
#218=EDGE_CURVE('',#191,#193,#254,.T.);
#219=EDGE_CURVE('',#190,#192,#255,.T.);
#220=EDGE_CURVE('',#188,#193,#256,.T.);
#221=EDGE_CURVE('',#192,#194,#257,.T.);
#222=EDGE_CURVE('',#194,#195,#258,.T.);
#223=EDGE_CURVE('',#195,#196,#259,.T.);
#224=EDGE_CURVE('',#197,#196,#260,.T.);
#225=EDGE_CURVE('',#197,#189,#261,.T.);
#226=EDGE_CURVE('',#198,#197,#262,.T.);
#227=EDGE_CURVE('',#196,#199,#263,.T.);
#228=EDGE_CURVE('',#199,#198,#264,.T.);
#229=EDGE_CURVE('',#195,#200,#265,.T.);
#230=EDGE_CURVE('',#200,#199,#266,.T.);
#231=EDGE_CURVE('',#200,#201,#267,.T.);
#232=EDGE_CURVE('',#201,#198,#268,.T.);
#233=EDGE_CURVE('',#201,#194,#269,.T.);
#234=EDGE_CURVE('',#202,#203,#270,.T.);
#235=EDGE_CURVE('',#203,#204,#271,.T.);
#236=EDGE_CURVE('',#205,#204,#272,.T.);
#237=EDGE_CURVE('',#205,#202,#273,.T.);
#238=EDGE_CURVE('',#206,#207,#274,.T.);
#239=EDGE_CURVE('',#207,#203,#275,.T.);
#240=EDGE_CURVE('',#206,#202,#276,.T.);
#241=EDGE_CURVE('',#206,#208,#277,.T.);
#242=EDGE_CURVE('',#208,#205,#278,.T.);
#243=EDGE_CURVE('',#208,#209,#279,.T.);
#244=EDGE_CURVE('',#209,#204,#280,.T.);
#245=EDGE_CURVE('',#209,#207,#281,.T.);
#246=LINE('',#453,#282);
#247=LINE('',#456,#283);
#248=LINE('',#458,#284);
#249=LINE('',#460,#285);
#250=LINE('',#462,#286);
#251=LINE('',#465,#287);
#252=LINE('',#466,#288);
#253=LINE('',#468,#289);
#254=LINE('',#471,#290);
#255=LINE('',#472,#291);
#256=LINE('',#474,#292);
#257=LINE('',#475,#293);
#258=LINE('',#477,#294);
#259=LINE('',#479,#295);
#260=LINE('',#481,#296);
#261=LINE('',#483,#297);
#262=LINE('',#485,#298);
#263=LINE('',#487,#299);
#264=LINE('',#489,#300);
#265=LINE('',#491,#301);
#266=LINE('',#493,#302);
#267=LINE('',#495,#303);
#268=LINE('',#497,#304);
#269=LINE('',#499,#305);
#270=LINE('',#503,#306);
#271=LINE('',#506,#307);
#272=LINE('',#508,#308);
#273=LINE('',#510,#309);
#274=LINE('',#512,#310);
#275=LINE('',#515,#311);
#276=LINE('',#516,#312);
#277=LINE('',#518,#313);
#278=LINE('',#520,#314);
#279=LINE('',#522,#315);
#280=LINE('',#524,#316);
#281=LINE('',#526,#317);
#282=VECTOR('',#378,1.);
#283=VECTOR('',#379,1.);
#284=VECTOR('',#380,1.);
#285=VECTOR('',#381,1.);
#286=VECTOR('',#384,1.);
#287=VECTOR('',#385,1.);
#288=VECTOR('',#386,1.);
#289=VECTOR('',#389,1.);
#290=VECTOR('',#390,1.);
#291=VECTOR('',#391,1.);
#292=VECTOR('',#394,1.);
#293=VECTOR('',#395,1.);
#294=VECTOR('',#396,1.);
#295=VECTOR('',#397,1.);
#296=VECTOR('',#398,1.);
#297=VECTOR('',#399,1.);
#298=VECTOR('',#402,1.);
#299=VECTOR('',#403,1.);
#300=VECTOR('',#404,1.);
#301=VECTOR('',#407,1.);
#302=VECTOR('',#408,1.);
#303=VECTOR('',#411,1.);
#304=VECTOR('',#412,1.);
#305=VECTOR('',#415,1.);
#306=VECTOR('',#422,1.);
#307=VECTOR('',#423,1.);
#308=VECTOR('',#424,1.);
#309=VECTOR('',#425,1.);
#310=VECTOR('',#428,1.);
#311=VECTOR('',#429,1.);
#312=VECTOR('',#430,1.);
#313=VECTOR('',#433,1.);
#314=VECTOR('',#434,1.);
#315=VECTOR('',#437,1.);
#316=VECTOR('',#438,1.);
#317=VECTOR('',#441,1.);
#318=CURVE_STYLE('',#321,POSITIVE_LENGTH_MEASURE(0.7),#347);
#319=CURVE_STYLE('',#322,POSITIVE_LENGTH_MEASURE(0.7),#348);
#320=CURVE_STYLE('',#323,POSITIVE_LENGTH_MEASURE(0.7),#348);
#321=DRAUGHTING_PRE_DEFINED_CURVE_FONT('continuous');
#322=DRAUGHTING_PRE_DEFINED_CURVE_FONT('continuous');
#323=DRAUGHTING_PRE_DEFINED_CURVE_FONT('continuous');
#324=PRESENTATION_LAYER_ASSIGNMENT('1','Layer 1',(#447,#448,#449,#351,#352,
#353,#46,#47));
#325=STYLED_ITEM('',(#333),#447);
#326=STYLED_ITEM('',(#334),#448);
#327=STYLED_ITEM('',(#335),#449);
#328=STYLED_ITEM('',(#336),#351);
#329=STYLED_ITEM('',(#337),#352);
#330=STYLED_ITEM('',(#338),#353);
#331=STYLED_ITEM('',(#339),#46);
#332=STYLED_ITEM('',(#340),#47);
#333=PRESENTATION_STYLE_ASSIGNMENT((#341));
#334=PRESENTATION_STYLE_ASSIGNMENT((#342));
#335=PRESENTATION_STYLE_ASSIGNMENT((#343));
#336=PRESENTATION_STYLE_ASSIGNMENT((#318));
#337=PRESENTATION_STYLE_ASSIGNMENT((#319));
#338=PRESENTATION_STYLE_ASSIGNMENT((#320));
#339=PRESENTATION_STYLE_ASSIGNMENT((#36));
#340=PRESENTATION_STYLE_ASSIGNMENT((#37));
#341=POINT_STYLE('',#344,POSITIVE_LENGTH_MEASURE(3.),#347);
#342=POINT_STYLE('',#345,POSITIVE_LENGTH_MEASURE(3.),#348);
#343=POINT_STYLE('',#346,POSITIVE_LENGTH_MEASURE(3.),#348);
#344=PRE_DEFINED_POINT_MARKER_SYMBOL('plus');
#345=PRE_DEFINED_POINT_MARKER_SYMBOL('plus');
#346=PRE_DEFINED_POINT_MARKER_SYMBOL('plus');
#347=COLOUR_RGB('Strong Stone',0.576470588235294,0.54508278019379,0.392156862745098);
#348=COLOUR_RGB('Medium Maroon',0.6,0.4,0.4);
#349=COLOUR_RGB('Medium Gray',0.490196078431373,0.490196078431373,0.490196078431373);
#350=AXIS2_PLACEMENT_3D('',#446,#370,#371);
#351=AXIS2_PLACEMENT_3D('CSW',#450,#372,#373);
#352=AXIS2_PLACEMENT_3D('MCS',#451,#374,#375);
#353=AXIS2_PLACEMENT_3D('PCS',#452,#376,#377);
#354=AXIS2_PLACEMENT_3D('',#461,#382,#383);
#355=AXIS2_PLACEMENT_3D('',#467,#387,#388);
#356=AXIS2_PLACEMENT_3D('',#473,#392,#393);
#357=AXIS2_PLACEMENT_3D('',#484,#400,#401);
#358=AXIS2_PLACEMENT_3D('',#490,#405,#406);
#359=AXIS2_PLACEMENT_3D('',#494,#409,#410);
#360=AXIS2_PLACEMENT_3D('',#498,#413,#414);
#361=AXIS2_PLACEMENT_3D('',#500,#416,#417);
#362=AXIS2_PLACEMENT_3D('',#501,#418,#419);
#363=AXIS2_PLACEMENT_3D('',#502,#420,#421);
#364=AXIS2_PLACEMENT_3D('',#511,#426,#427);
#365=AXIS2_PLACEMENT_3D('',#517,#431,#432);
#366=AXIS2_PLACEMENT_3D('',#521,#435,#436);
#367=AXIS2_PLACEMENT_3D('',#525,#439,#440);
#368=AXIS2_PLACEMENT_3D('',#527,#442,#443);
#369=AXIS2_PLACEMENT_3D('',#528,#444,#445);
#370=DIRECTION('',(0.,0.,1.));
#371=DIRECTION('',(1.,0.,0.));
#372=DIRECTION('',(0.,0.,1.));
#373=DIRECTION('',(1.,0.,0.));
#374=DIRECTION('',(0.,0.,1.));
#375=DIRECTION('',(1.,0.,0.));
#376=DIRECTION('',(0.,0.,1.));
#377=DIRECTION('',(1.,0.,0.));
#378=DIRECTION('',(0.,0.,1.));
#379=DIRECTION('',(0.,1.,4.33680868994202E-16));
#380=DIRECTION('',(0.,0.,1.));
#381=DIRECTION('',(0.,1.,0.));
#382=DIRECTION('',(1.,0.,0.));
#383=DIRECTION('',(0.,0.,-1.));
#384=DIRECTION('',(0.,0.,1.));
#385=DIRECTION('',(-1.,0.,0.));
#386=DIRECTION('',(1.,0.,0.));
#387=DIRECTION('',(0.,1.,1.27553196763001E-16));
#388=DIRECTION('',(0.,-1.27502175484295E-16,1.));
#389=DIRECTION('',(0.,0.,1.));
#390=DIRECTION('',(1.61174716712516E-16,-1.,-4.33680868994202E-16));
#391=DIRECTION('',(1.61174716712516E-16,-1.,0.));
#392=DIRECTION('',(-1.,-1.61174716712516E-16,0.));
#393=DIRECTION('',(1.61329283265843E-16,-1.,0.));
#394=DIRECTION('',(-1.,0.,0.));
#395=DIRECTION('',(-1.,0.,0.));
#396=DIRECTION('',(0.,0.,-1.));
#397=DIRECTION('',(1.,0.,0.));
#398=DIRECTION('',(0.,0.,-1.));
#399=DIRECTION('',(-1.,0.,0.));
#400=DIRECTION('',(0.,-1.,0.));
#401=DIRECTION('',(0.,0.,-1.));
#402=DIRECTION('',(0.,-1.,-4.33680868994202E-16));
#403=DIRECTION('',(0.,1.,0.));
#404=DIRECTION('',(0.,-1.44560289664734E-16,1.));
#405=DIRECTION('',(1.,0.,0.));
#406=DIRECTION('',(0.,0.,-1.));
#407=DIRECTION('',(0.,1.,0.));
#408=DIRECTION('',(1.,0.,0.));
#409=DIRECTION('',(0.,0.,-1.));
#410=DIRECTION('',(-1.,0.,0.));
#411=DIRECTION('',(0.,-1.44560289664734E-16,1.));
#412=DIRECTION('',(1.,0.,0.));
#413=DIRECTION('',(0.,1.,1.44560289664734E-16));
#414=DIRECTION('',(0.,-1.43982048506075E-16,1.));
#415=DIRECTION('',(0.,-1.,-4.33680868994202E-16));
#416=DIRECTION('',(0.,-4.33680868994202E-16,1.));
#417=DIRECTION('',(0.,-1.,-4.33680868994202E-16));
#418=DIRECTION('',(1.,0.,0.));
#419=DIRECTION('',(0.,0.,-1.));
#420=DIRECTION('',(0.,-4.33680868994202E-16,1.));
#421=DIRECTION('',(0.,-1.,-4.33680868994202E-16));
#422=DIRECTION('',(1.,9.10615997888088E-17,0.));
#423=DIRECTION('',(0.,1.,0.));
#424=DIRECTION('',(1.,0.,0.));
#425=DIRECTION('',(1.61174716712516E-16,-1.,0.));
#426=DIRECTION('',(0.,0.,1.));
#427=DIRECTION('',(1.,0.,0.));
#428=DIRECTION('',(1.,0.,0.));
#429=DIRECTION('',(0.,0.,1.));
#430=DIRECTION('',(0.,0.,1.));
#431=DIRECTION('',(0.,-1.,0.));
#432=DIRECTION('',(0.,0.,-1.));
#433=DIRECTION('',(-1.61174716712516E-16,1.,4.33680868994202E-16));
#434=DIRECTION('',(0.,0.,1.));
#435=DIRECTION('',(-1.,-1.61174716712516E-16,0.));
#436=DIRECTION('',(1.61329283265843E-16,-1.,0.));
#437=DIRECTION('',(1.,0.,0.));
#438=DIRECTION('',(0.,0.,1.));
#439=DIRECTION('',(0.,1.,1.27553196763001E-16));
#440=DIRECTION('',(0.,-1.27502175484295E-16,1.));
#441=DIRECTION('',(0.,-1.,-4.33680868994202E-16));
#442=DIRECTION('',(1.,0.,0.));
#443=DIRECTION('',(0.,0.,-1.));
#444=DIRECTION('',(0.,-4.33680868994202E-16,1.));
#445=DIRECTION('',(0.,-1.,-4.33680868994202E-16));
#446=CARTESIAN_POINT('',(0.,0.,0.));
#447=CARTESIAN_POINT('CSW',(0.,0.,0.));
#448=CARTESIAN_POINT('MCS',(-4.44089209850063E-16,5.99999999999999,22.));
#449=CARTESIAN_POINT('PCS',(4.7625,-6.,80.));
#450=CARTESIAN_POINT('',(0.,0.,0.));
#451=CARTESIAN_POINT('',(-4.44089209850063E-16,5.99999999999999,22.));
#452=CARTESIAN_POINT('',(4.7625,-6.,80.));
#453=CARTESIAN_POINT('',(4.7625,5.99999999999999,12.));
#454=CARTESIAN_POINT('',(4.7625,5.99999999999999,12.));
#455=CARTESIAN_POINT('',(4.7625,6.,22.));
#456=CARTESIAN_POINT('',(4.7625,5.99999999999999,22.));
#457=CARTESIAN_POINT('',(4.7625,-6.,22.));
#458=CARTESIAN_POINT('',(4.7625,-6.,12.));
#459=CARTESIAN_POINT('',(4.7625,-6.,12.));
#460=CARTESIAN_POINT('',(4.7625,5.99999999999999,12.));
#461=CARTESIAN_POINT('',(4.7625,5.99999999999999,12.));
#462=CARTESIAN_POINT('',(-4.7625,5.99999999999999,12.));
#463=CARTESIAN_POINT('',(-4.7625,5.99999999999999,12.));
#464=CARTESIAN_POINT('',(-4.7625,5.99999999999999,22.));
#465=CARTESIAN_POINT('',(-6.,6.,22.));
#466=CARTESIAN_POINT('',(-6.,6.,12.));
#467=CARTESIAN_POINT('',(-6.,6.,12.));
#468=CARTESIAN_POINT('',(-4.7625,-6.,12.));
#469=CARTESIAN_POINT('',(-4.7625,-6.,12.));
#470=CARTESIAN_POINT('',(-4.7625,-6.,22.));
#471=CARTESIAN_POINT('',(-4.7625,5.99999999999999,22.));
#472=CARTESIAN_POINT('',(-4.7625,5.99999999999999,12.));
#473=CARTESIAN_POINT('',(-4.7625,5.99999999999999,12.));
#474=CARTESIAN_POINT('',(-6.,-6.,22.));
#475=CARTESIAN_POINT('',(-6.,-6.,12.));
#476=CARTESIAN_POINT('',(-6.,-6.,12.));
#477=CARTESIAN_POINT('',(-6.,-6.,80.));
#478=CARTESIAN_POINT('',(-6.,-6.,0.));
#479=CARTESIAN_POINT('',(-6.,-6.,0.));
#480=CARTESIAN_POINT('',(6.,-6.,0.));
#481=CARTESIAN_POINT('',(6.,-6.,80.));
#482=CARTESIAN_POINT('',(6.,-6.,12.));
#483=CARTESIAN_POINT('',(-6.,-6.,12.));
#484=CARTESIAN_POINT('',(-6.,-6.,80.));
#485=CARTESIAN_POINT('',(6.,10.,12.));
#486=CARTESIAN_POINT('',(6.,10.,12.));
#487=CARTESIAN_POINT('',(6.,-6.,0.));
#488=CARTESIAN_POINT('',(6.,10.,0.));
#489=CARTESIAN_POINT('',(6.,10.,0.));
#490=CARTESIAN_POINT('',(6.,-6.,0.));
#491=CARTESIAN_POINT('',(-6.,-6.,0.));
#492=CARTESIAN_POINT('',(-6.,10.,0.));
#493=CARTESIAN_POINT('',(-6.,10.,0.));
#494=CARTESIAN_POINT('',(-6.,-6.,0.));
#495=CARTESIAN_POINT('',(-6.,10.,0.));
#496=CARTESIAN_POINT('',(-6.,10.,12.));
#497=CARTESIAN_POINT('',(-6.,10.,12.));
#498=CARTESIAN_POINT('',(-6.,10.,0.));
#499=CARTESIAN_POINT('',(-6.,10.,12.));
#500=CARTESIAN_POINT('',(-6.,10.,12.));
#501=CARTESIAN_POINT('',(-6.,-6.,0.));
#502=CARTESIAN_POINT('',(0.,2.,22.));
#503=CARTESIAN_POINT('',(-4.7625,-6.,80.));
#504=CARTESIAN_POINT('',(-4.7625,-6.,80.));
#505=CARTESIAN_POINT('',(4.7625,-6.,80.));
#506=CARTESIAN_POINT('',(4.7625,5.99999999999999,80.));
#507=CARTESIAN_POINT('',(4.7625,5.99999999999999,80.));
#508=CARTESIAN_POINT('',(-6.,5.99999999999999,80.));
#509=CARTESIAN_POINT('',(-4.7625,5.99999999999999,80.));
#510=CARTESIAN_POINT('',(-4.7625,5.99999999999999,80.));
#511=CARTESIAN_POINT('',(-6.,5.99999999999999,80.));
#512=CARTESIAN_POINT('',(-6.,-6.,22.));
#513=CARTESIAN_POINT('',(-4.7625,-6.,22.));
#514=CARTESIAN_POINT('',(4.7625,-6.,22.));
#515=CARTESIAN_POINT('',(4.7625,-6.,12.));
#516=CARTESIAN_POINT('',(-4.7625,-6.,12.));
#517=CARTESIAN_POINT('',(-6.,-6.,80.));
#518=CARTESIAN_POINT('',(-4.7625,5.99999999999999,22.));
#519=CARTESIAN_POINT('',(-4.7625,5.99999999999999,22.));
#520=CARTESIAN_POINT('',(-4.7625,5.99999999999999,12.));
#521=CARTESIAN_POINT('',(-4.7625,5.99999999999999,12.));
#522=CARTESIAN_POINT('',(-6.,6.,22.));
#523=CARTESIAN_POINT('',(4.7625,6.,22.));
#524=CARTESIAN_POINT('',(4.7625,5.99999999999999,12.));
#525=CARTESIAN_POINT('',(-6.,6.,12.));
#526=CARTESIAN_POINT('',(4.7625,5.99999999999999,22.));
#527=CARTESIAN_POINT('',(4.7625,5.99999999999999,12.));
#528=CARTESIAN_POINT('',(0.,2.,22.));
#529=MECHANICAL_DESIGN_GEOMETRIC_PRESENTATION_REPRESENTATION('',(#325,#326,
#327,#328,#329,#330,#331,#332),#530);
#530=(
GEOMETRIC_REPRESENTATION_CONTEXT(3)
GLOBAL_UNCERTAINTY_ASSIGNED_CONTEXT((#531))
GLOBAL_UNIT_ASSIGNED_CONTEXT((#537,#533,#532))
REPRESENTATION_CONTEXT('N0472-0375F-QC12_Basic',
'TOP_LEVEL_ASSEMBLY_PART')
);
#531=UNCERTAINTY_MEASURE_WITH_UNIT(LENGTH_MEASURE(2.E-5),#537,
'DISTANCE_ACCURACY_VALUE','Maximum Tolerance applied to model');
#532=(
NAMED_UNIT(*)
SI_UNIT($,.STERADIAN.)
SOLID_ANGLE_UNIT()
);
#533=(
CONVERSION_BASED_UNIT('DEGREE',#535)
NAMED_UNIT(#534)
PLANE_ANGLE_UNIT()
);
#534=DIMENSIONAL_EXPONENTS(0.,0.,0.,0.,0.,0.,0.);
#535=PLANE_ANGLE_MEASURE_WITH_UNIT(PLANE_ANGLE_MEASURE(0.0174532925),#536);
#536=(
NAMED_UNIT(*)
PLANE_ANGLE_UNIT()
SI_UNIT($,.RADIAN.)
);
#537=(
LENGTH_UNIT()
NAMED_UNIT(*)
SI_UNIT(.MILLI.,.METRE.)
);
ENDSEC;
END-ISO-10303-21;
