ISO-10303-21;
HEADER;
/* Generated by software containing ST-Developer
 * from STEP Tools, Inc. (www.steptools.com) 
 */
/* OPTION: using custom schema-name function */

FILE_DESCRIPTION(
/* description */ (''),
/* implementation_level */ '2;1');

FILE_NAME(
/* name */ 'N1012F-QC12_Basicf.stp',
/* time_stamp */ '2021-12-28T17:05:01+06:00',
/* author */ (''),
/* organization */ (''),
/* preprocessor_version */ 'ST-DEVELOPER v16.7',
/* originating_system */ 'SIEMENS PLM Software NX 12.0',
/* authorisation */ '');

FILE_SCHEMA (('AUTOMOTIVE_DESIGN { 1 0 10303 214 3 1 1 1 }'));
ENDSEC;

DATA;
#10=CONSTRUCTIVE_GEOMETRY_REPRESENTATION_RELATIONSHIP(
'supplemental geometry','',#34,#11);
#11=CONSTRUCTIVE_GEOMETRY_REPRESENTATION('supplemental geometry',(#350,
#351,#352),#529);
#12=GEOMETRICALLY_BOUNDED_WIREFRAME_SHAPE_REPRESENTATION(
'inpu3198EBCCtjz6-None',(#35),#529);
#13=PROPERTY_DEFINITION_REPRESENTATION(#17,#15);
#14=PROPERTY_DEFINITION_REPRESENTATION(#18,#16);
#15=REPRESENTATION('',(#19),#529);
#16=REPRESENTATION('',(#20),#529);
#17=PROPERTY_DEFINITION('pmi validation property','',#25);
#18=PROPERTY_DEFINITION('pmi validation property','',#25);
#19=VALUE_REPRESENTATION_ITEM('number of annotations',COUNT_MEASURE(0.));
#20=VALUE_REPRESENTATION_ITEM('number of views',COUNT_MEASURE(0.));
#21=SHAPE_REPRESENTATION_RELATIONSHIP('None',
'relationship between inpu3198EBCCtjz6-None and inpu3198EBCCtjz6-None',
#34,#23);
#22=SHAPE_REPRESENTATION_RELATIONSHIP('None',
'relationship between inpu3198EBCCtjz6-None and inpu3198EBCCtjz6-None',
#34,#12);
#23=ADVANCED_BREP_SHAPE_REPRESENTATION('inpu3198EBCCtjz6-None',(#46,#47),
#529);
#24=SHAPE_DEFINITION_REPRESENTATION(#25,#34);
#25=PRODUCT_DEFINITION_SHAPE('','',#26);
#26=PRODUCT_DEFINITION(' ','',#28,#27);
#27=PRODUCT_DEFINITION_CONTEXT('part definition',#33,'design');
#28=PRODUCT_DEFINITION_FORMATION_WITH_SPECIFIED_SOURCE(' ',' ',#30,
 .NOT_KNOWN.);
#29=PRODUCT_RELATED_PRODUCT_CATEGORY('part','',(#30));
#30=PRODUCT('inpu3198EBCCtjz6','inpu3198EBCCtjz6',' ',(#31));
#31=PRODUCT_CONTEXT(' ',#33,'mechanical');
#32=APPLICATION_PROTOCOL_DEFINITION('international standard',
'automotive_design',2010,#33);
#33=APPLICATION_CONTEXT(
'core data for automotive mechanical design processes');
#34=SHAPE_REPRESENTATION('inpu3198EBCCtjz6-None',(#349),#529);
#35=GEOMETRIC_CURVE_SET('None',(#446,#447,#448));
#36=SURFACE_STYLE_USAGE(.BOTH.,#38);
#37=SURFACE_STYLE_USAGE(.BOTH.,#39);
#38=SURFACE_SIDE_STYLE('',(#40));
#39=SURFACE_SIDE_STYLE('',(#41));
#40=SURFACE_STYLE_FILL_AREA(#42);
#41=SURFACE_STYLE_FILL_AREA(#43);
#42=FILL_AREA_STYLE('',(#44));
#43=FILL_AREA_STYLE('',(#45));
#44=FILL_AREA_STYLE_COLOUR('',#348);
#45=FILL_AREA_STYLE_COLOUR('',#348);
#46=MANIFOLD_SOLID_BREP('NOCUT',#48);
#47=MANIFOLD_SOLID_BREP('NOCUT',#49);
#48=CLOSED_SHELL('',(#50,#51,#52,#53,#54,#55,#56,#57,#58,#59));
#49=CLOSED_SHELL('',(#60,#61,#62,#63,#64,#65));
#50=ADVANCED_FACE('',(#82),#66,.T.);
#51=ADVANCED_FACE('',(#83),#67,.T.);
#52=ADVANCED_FACE('',(#84),#68,.T.);
#53=ADVANCED_FACE('',(#85),#69,.T.);
#54=ADVANCED_FACE('',(#86),#70,.F.);
#55=ADVANCED_FACE('',(#87),#71,.T.);
#56=ADVANCED_FACE('',(#88),#72,.T.);
#57=ADVANCED_FACE('',(#89),#73,.T.);
#58=ADVANCED_FACE('',(#90),#74,.T.);
#59=ADVANCED_FACE('',(#91),#75,.T.);
#60=ADVANCED_FACE('',(#92),#76,.T.);
#61=ADVANCED_FACE('',(#93),#77,.T.);
#62=ADVANCED_FACE('',(#94),#78,.T.);
#63=ADVANCED_FACE('',(#95),#79,.T.);
#64=ADVANCED_FACE('',(#96),#80,.T.);
#65=ADVANCED_FACE('',(#97),#81,.F.);
#66=PLANE('',#353);
#67=PLANE('',#354);
#68=PLANE('',#355);
#69=PLANE('',#356);
#70=PLANE('',#357);
#71=PLANE('',#358);
#72=PLANE('',#359);
#73=PLANE('',#360);
#74=PLANE('',#361);
#75=PLANE('',#362);
#76=PLANE('',#363);
#77=PLANE('',#364);
#78=PLANE('',#365);
#79=PLANE('',#366);
#80=PLANE('',#367);
#81=PLANE('',#368);
#82=FACE_OUTER_BOUND('',#98,.T.);
#83=FACE_OUTER_BOUND('',#99,.T.);
#84=FACE_OUTER_BOUND('',#100,.T.);
#85=FACE_OUTER_BOUND('',#101,.T.);
#86=FACE_OUTER_BOUND('',#102,.T.);
#87=FACE_OUTER_BOUND('',#103,.T.);
#88=FACE_OUTER_BOUND('',#104,.T.);
#89=FACE_OUTER_BOUND('',#105,.T.);
#90=FACE_OUTER_BOUND('',#106,.T.);
#91=FACE_OUTER_BOUND('',#107,.T.);
#92=FACE_OUTER_BOUND('',#108,.T.);
#93=FACE_OUTER_BOUND('',#109,.T.);
#94=FACE_OUTER_BOUND('',#110,.T.);
#95=FACE_OUTER_BOUND('',#111,.T.);
#96=FACE_OUTER_BOUND('',#112,.T.);
#97=FACE_OUTER_BOUND('',#113,.T.);
#98=EDGE_LOOP('',(#114,#115,#116,#117));
#99=EDGE_LOOP('',(#118,#119,#120,#121));
#100=EDGE_LOOP('',(#122,#123,#124,#125));
#101=EDGE_LOOP('',(#126,#127,#128,#129,#130,#131,#132,#133));
#102=EDGE_LOOP('',(#134,#135,#136,#137));
#103=EDGE_LOOP('',(#138,#139,#140,#141,#142,#143,#144,#145));
#104=EDGE_LOOP('',(#146,#147,#148,#149));
#105=EDGE_LOOP('',(#150,#151,#152,#153));
#106=EDGE_LOOP('',(#154,#155,#156,#157));
#107=EDGE_LOOP('',(#158,#159,#160,#161));
#108=EDGE_LOOP('',(#162,#163,#164,#165));
#109=EDGE_LOOP('',(#166,#167,#168,#169));
#110=EDGE_LOOP('',(#170,#171,#172,#173));
#111=EDGE_LOOP('',(#174,#175,#176,#177));
#112=EDGE_LOOP('',(#178,#179,#180,#181));
#113=EDGE_LOOP('',(#182,#183,#184,#185));
#114=ORIENTED_EDGE('',*,*,#210,.T.);
#115=ORIENTED_EDGE('',*,*,#211,.F.);
#116=ORIENTED_EDGE('',*,*,#212,.F.);
#117=ORIENTED_EDGE('',*,*,#213,.T.);
#118=ORIENTED_EDGE('',*,*,#212,.T.);
#119=ORIENTED_EDGE('',*,*,#214,.T.);
#120=ORIENTED_EDGE('',*,*,#215,.F.);
#121=ORIENTED_EDGE('',*,*,#216,.F.);
#122=ORIENTED_EDGE('',*,*,#215,.T.);
#123=ORIENTED_EDGE('',*,*,#217,.T.);
#124=ORIENTED_EDGE('',*,*,#218,.F.);
#125=ORIENTED_EDGE('',*,*,#219,.T.);
#126=ORIENTED_EDGE('',*,*,#218,.T.);
#127=ORIENTED_EDGE('',*,*,#220,.F.);
#128=ORIENTED_EDGE('',*,*,#210,.F.);
#129=ORIENTED_EDGE('',*,*,#221,.T.);
#130=ORIENTED_EDGE('',*,*,#222,.T.);
#131=ORIENTED_EDGE('',*,*,#223,.T.);
#132=ORIENTED_EDGE('',*,*,#224,.F.);
#133=ORIENTED_EDGE('',*,*,#225,.T.);
#134=ORIENTED_EDGE('',*,*,#226,.F.);
#135=ORIENTED_EDGE('',*,*,#222,.F.);
#136=ORIENTED_EDGE('',*,*,#227,.F.);
#137=ORIENTED_EDGE('',*,*,#228,.F.);
#138=ORIENTED_EDGE('',*,*,#216,.T.);
#139=ORIENTED_EDGE('',*,*,#219,.F.);
#140=ORIENTED_EDGE('',*,*,#225,.F.);
#141=ORIENTED_EDGE('',*,*,#229,.F.);
#142=ORIENTED_EDGE('',*,*,#230,.F.);
#143=ORIENTED_EDGE('',*,*,#227,.T.);
#144=ORIENTED_EDGE('',*,*,#221,.F.);
#145=ORIENTED_EDGE('',*,*,#213,.F.);
#146=ORIENTED_EDGE('',*,*,#231,.T.);
#147=ORIENTED_EDGE('',*,*,#232,.F.);
#148=ORIENTED_EDGE('',*,*,#223,.F.);
#149=ORIENTED_EDGE('',*,*,#226,.T.);
#150=ORIENTED_EDGE('',*,*,#233,.F.);
#151=ORIENTED_EDGE('',*,*,#231,.F.);
#152=ORIENTED_EDGE('',*,*,#228,.T.);
#153=ORIENTED_EDGE('',*,*,#230,.T.);
#154=ORIENTED_EDGE('',*,*,#229,.T.);
#155=ORIENTED_EDGE('',*,*,#224,.T.);
#156=ORIENTED_EDGE('',*,*,#232,.T.);
#157=ORIENTED_EDGE('',*,*,#233,.T.);
#158=ORIENTED_EDGE('',*,*,#211,.T.);
#159=ORIENTED_EDGE('',*,*,#220,.T.);
#160=ORIENTED_EDGE('',*,*,#217,.F.);
#161=ORIENTED_EDGE('',*,*,#214,.F.);
#162=ORIENTED_EDGE('',*,*,#234,.T.);
#163=ORIENTED_EDGE('',*,*,#235,.T.);
#164=ORIENTED_EDGE('',*,*,#236,.F.);
#165=ORIENTED_EDGE('',*,*,#237,.T.);
#166=ORIENTED_EDGE('',*,*,#238,.F.);
#167=ORIENTED_EDGE('',*,*,#239,.T.);
#168=ORIENTED_EDGE('',*,*,#234,.F.);
#169=ORIENTED_EDGE('',*,*,#240,.F.);
#170=ORIENTED_EDGE('',*,*,#241,.T.);
#171=ORIENTED_EDGE('',*,*,#242,.T.);
#172=ORIENTED_EDGE('',*,*,#235,.F.);
#173=ORIENTED_EDGE('',*,*,#239,.F.);
#174=ORIENTED_EDGE('',*,*,#243,.T.);
#175=ORIENTED_EDGE('',*,*,#244,.T.);
#176=ORIENTED_EDGE('',*,*,#236,.T.);
#177=ORIENTED_EDGE('',*,*,#242,.F.);
#178=ORIENTED_EDGE('',*,*,#245,.F.);
#179=ORIENTED_EDGE('',*,*,#240,.T.);
#180=ORIENTED_EDGE('',*,*,#237,.F.);
#181=ORIENTED_EDGE('',*,*,#244,.F.);
#182=ORIENTED_EDGE('',*,*,#245,.T.);
#183=ORIENTED_EDGE('',*,*,#243,.F.);
#184=ORIENTED_EDGE('',*,*,#241,.F.);
#185=ORIENTED_EDGE('',*,*,#238,.T.);
#186=VERTEX_POINT('',#453);
#187=VERTEX_POINT('',#454);
#188=VERTEX_POINT('',#456);
#189=VERTEX_POINT('',#458);
#190=VERTEX_POINT('',#462);
#191=VERTEX_POINT('',#464);
#192=VERTEX_POINT('',#468);
#193=VERTEX_POINT('',#470);
#194=VERTEX_POINT('',#475);
#195=VERTEX_POINT('',#477);
#196=VERTEX_POINT('',#479);
#197=VERTEX_POINT('',#481);
#198=VERTEX_POINT('',#485);
#199=VERTEX_POINT('',#487);
#200=VERTEX_POINT('',#491);
#201=VERTEX_POINT('',#495);
#202=VERTEX_POINT('',#503);
#203=VERTEX_POINT('',#504);
#204=VERTEX_POINT('',#506);
#205=VERTEX_POINT('',#508);
#206=VERTEX_POINT('',#512);
#207=VERTEX_POINT('',#513);
#208=VERTEX_POINT('',#518);
#209=VERTEX_POINT('',#522);
#210=EDGE_CURVE('',#186,#187,#246,.T.);
#211=EDGE_CURVE('',#188,#187,#247,.T.);
#212=EDGE_CURVE('',#189,#188,#248,.T.);
#213=EDGE_CURVE('',#189,#186,#249,.T.);
#214=EDGE_CURVE('',#188,#190,#250,.T.);
#215=EDGE_CURVE('',#191,#190,#251,.T.);
#216=EDGE_CURVE('',#189,#191,#252,.T.);
#217=EDGE_CURVE('',#190,#192,#253,.T.);
#218=EDGE_CURVE('',#193,#192,#254,.T.);
#219=EDGE_CURVE('',#193,#191,#255,.T.);
#220=EDGE_CURVE('',#187,#192,#256,.T.);
#221=EDGE_CURVE('',#186,#194,#257,.T.);
#222=EDGE_CURVE('',#194,#195,#258,.T.);
#223=EDGE_CURVE('',#195,#196,#259,.T.);
#224=EDGE_CURVE('',#197,#196,#260,.T.);
#225=EDGE_CURVE('',#197,#193,#261,.T.);
#226=EDGE_CURVE('',#195,#198,#262,.T.);
#227=EDGE_CURVE('',#199,#194,#263,.T.);
#228=EDGE_CURVE('',#198,#199,#264,.T.);
#229=EDGE_CURVE('',#200,#197,#265,.T.);
#230=EDGE_CURVE('',#199,#200,#266,.T.);
#231=EDGE_CURVE('',#198,#201,#267,.T.);
#232=EDGE_CURVE('',#196,#201,#268,.T.);
#233=EDGE_CURVE('',#201,#200,#269,.T.);
#234=EDGE_CURVE('',#202,#203,#270,.T.);
#235=EDGE_CURVE('',#203,#204,#271,.T.);
#236=EDGE_CURVE('',#205,#204,#272,.T.);
#237=EDGE_CURVE('',#205,#202,#273,.T.);
#238=EDGE_CURVE('',#206,#207,#274,.T.);
#239=EDGE_CURVE('',#206,#203,#275,.T.);
#240=EDGE_CURVE('',#207,#202,#276,.T.);
#241=EDGE_CURVE('',#206,#208,#277,.T.);
#242=EDGE_CURVE('',#208,#204,#278,.T.);
#243=EDGE_CURVE('',#208,#209,#279,.T.);
#244=EDGE_CURVE('',#209,#205,#280,.T.);
#245=EDGE_CURVE('',#207,#209,#281,.T.);
#246=LINE('',#452,#282);
#247=LINE('',#455,#283);
#248=LINE('',#457,#284);
#249=LINE('',#459,#285);
#250=LINE('',#461,#286);
#251=LINE('',#463,#287);
#252=LINE('',#465,#288);
#253=LINE('',#467,#289);
#254=LINE('',#469,#290);
#255=LINE('',#471,#291);
#256=LINE('',#473,#292);
#257=LINE('',#474,#293);
#258=LINE('',#476,#294);
#259=LINE('',#478,#295);
#260=LINE('',#480,#296);
#261=LINE('',#482,#297);
#262=LINE('',#484,#298);
#263=LINE('',#486,#299);
#264=LINE('',#488,#300);
#265=LINE('',#490,#301);
#266=LINE('',#492,#302);
#267=LINE('',#494,#303);
#268=LINE('',#496,#304);
#269=LINE('',#498,#305);
#270=LINE('',#502,#306);
#271=LINE('',#505,#307);
#272=LINE('',#507,#308);
#273=LINE('',#509,#309);
#274=LINE('',#511,#310);
#275=LINE('',#514,#311);
#276=LINE('',#515,#312);
#277=LINE('',#517,#313);
#278=LINE('',#519,#314);
#279=LINE('',#521,#315);
#280=LINE('',#523,#316);
#281=LINE('',#525,#317);
#282=VECTOR('',#377,1.);
#283=VECTOR('',#378,1.);
#284=VECTOR('',#379,1.);
#285=VECTOR('',#380,1.);
#286=VECTOR('',#383,1.);
#287=VECTOR('',#384,1.);
#288=VECTOR('',#385,1.);
#289=VECTOR('',#388,1.);
#290=VECTOR('',#389,1.);
#291=VECTOR('',#390,1.);
#292=VECTOR('',#393,1.);
#293=VECTOR('',#394,1.);
#294=VECTOR('',#395,1.);
#295=VECTOR('',#396,1.);
#296=VECTOR('',#397,1.);
#297=VECTOR('',#398,1.);
#298=VECTOR('',#401,1.);
#299=VECTOR('',#402,1.);
#300=VECTOR('',#403,1.);
#301=VECTOR('',#406,1.);
#302=VECTOR('',#407,1.);
#303=VECTOR('',#410,1.);
#304=VECTOR('',#411,1.);
#305=VECTOR('',#414,1.);
#306=VECTOR('',#421,1.);
#307=VECTOR('',#422,1.);
#308=VECTOR('',#423,1.);
#309=VECTOR('',#424,1.);
#310=VECTOR('',#427,1.);
#311=VECTOR('',#428,1.);
#312=VECTOR('',#429,1.);
#313=VECTOR('',#432,1.);
#314=VECTOR('',#433,1.);
#315=VECTOR('',#436,1.);
#316=VECTOR('',#437,1.);
#317=VECTOR('',#440,1.);
#318=CURVE_STYLE('',#321,POSITIVE_LENGTH_MEASURE(0.18),#347);
#319=CURVE_STYLE('',#322,POSITIVE_LENGTH_MEASURE(0.18),#347);
#320=CURVE_STYLE('',#323,POSITIVE_LENGTH_MEASURE(0.18),#347);
#321=DRAUGHTING_PRE_DEFINED_CURVE_FONT('continuous');
#322=DRAUGHTING_PRE_DEFINED_CURVE_FONT('continuous');
#323=DRAUGHTING_PRE_DEFINED_CURVE_FONT('continuous');
#324=PRESENTATION_LAYER_ASSIGNMENT('1','Layer 1',(#446,#447,#448,#350,#351,
#352,#46,#47));
#325=STYLED_ITEM('',(#333),#446);
#326=STYLED_ITEM('',(#334),#447);
#327=STYLED_ITEM('',(#335),#448);
#328=STYLED_ITEM('',(#336),#350);
#329=STYLED_ITEM('',(#337),#351);
#330=STYLED_ITEM('',(#338),#352);
#331=STYLED_ITEM('',(#339),#46);
#332=STYLED_ITEM('',(#340),#47);
#333=PRESENTATION_STYLE_ASSIGNMENT((#341));
#334=PRESENTATION_STYLE_ASSIGNMENT((#342));
#335=PRESENTATION_STYLE_ASSIGNMENT((#343));
#336=PRESENTATION_STYLE_ASSIGNMENT((#318));
#337=PRESENTATION_STYLE_ASSIGNMENT((#319));
#338=PRESENTATION_STYLE_ASSIGNMENT((#320));
#339=PRESENTATION_STYLE_ASSIGNMENT((#36));
#340=PRESENTATION_STYLE_ASSIGNMENT((#37));
#341=POINT_STYLE('',#344,POSITIVE_LENGTH_MEASURE(3.),#347);
#342=POINT_STYLE('',#345,POSITIVE_LENGTH_MEASURE(3.),#347);
#343=POINT_STYLE('',#346,POSITIVE_LENGTH_MEASURE(3.),#347);
#344=PRE_DEFINED_POINT_MARKER_SYMBOL('plus');
#345=PRE_DEFINED_POINT_MARKER_SYMBOL('plus');
#346=PRE_DEFINED_POINT_MARKER_SYMBOL('plus');
#347=COLOUR_RGB('Strong Stone',0.576470588235294,0.54508278019379,0.392156862745098);
#348=COLOUR_RGB('Medium Gray',0.490196078431373,0.490196078431373,0.490196078431373);
#349=AXIS2_PLACEMENT_3D('',#445,#369,#370);
#350=AXIS2_PLACEMENT_3D('PCS',#449,#371,#372);
#351=AXIS2_PLACEMENT_3D('MCS',#450,#373,#374);
#352=AXIS2_PLACEMENT_3D('CSW',#451,#375,#376);
#353=AXIS2_PLACEMENT_3D('',#460,#381,#382);
#354=AXIS2_PLACEMENT_3D('',#466,#386,#387);
#355=AXIS2_PLACEMENT_3D('',#472,#391,#392);
#356=AXIS2_PLACEMENT_3D('',#483,#399,#400);
#357=AXIS2_PLACEMENT_3D('',#489,#404,#405);
#358=AXIS2_PLACEMENT_3D('',#493,#408,#409);
#359=AXIS2_PLACEMENT_3D('',#497,#412,#413);
#360=AXIS2_PLACEMENT_3D('',#499,#415,#416);
#361=AXIS2_PLACEMENT_3D('',#500,#417,#418);
#362=AXIS2_PLACEMENT_3D('',#501,#419,#420);
#363=AXIS2_PLACEMENT_3D('',#510,#425,#426);
#364=AXIS2_PLACEMENT_3D('',#516,#430,#431);
#365=AXIS2_PLACEMENT_3D('',#520,#434,#435);
#366=AXIS2_PLACEMENT_3D('',#524,#438,#439);
#367=AXIS2_PLACEMENT_3D('',#526,#441,#442);
#368=AXIS2_PLACEMENT_3D('',#527,#443,#444);
#369=DIRECTION('',(0.,0.,1.));
#370=DIRECTION('',(1.,0.,0.));
#371=DIRECTION('',(0.,0.,1.));
#372=DIRECTION('',(1.,0.,0.));
#373=DIRECTION('',(0.,0.,1.));
#374=DIRECTION('',(1.,0.,0.));
#375=DIRECTION('',(0.,0.,1.));
#376=DIRECTION('',(1.,0.,0.));
#377=DIRECTION('',(0.,0.,1.));
#378=DIRECTION('',(1.5770213417971E-16,-1.,0.));
#379=DIRECTION('',(0.,0.,1.));
#380=DIRECTION('',(1.5770213417971E-16,-1.,0.));
#381=DIRECTION('',(-1.,-1.5770213417971E-16,0.));
#382=DIRECTION('',(1.57859836313889E-16,-1.,0.));
#383=DIRECTION('',(1.,0.,0.));
#384=DIRECTION('',(0.,0.,1.));
#385=DIRECTION('',(1.,0.,0.));
#386=DIRECTION('',(0.,1.,1.27553196763001E-16));
#387=DIRECTION('',(0.,-1.27553196763001E-16,1.));
#388=DIRECTION('',(1.5770213417971E-16,-1.,0.));
#389=DIRECTION('',(0.,0.,1.));
#390=DIRECTION('',(-1.5770213417971E-16,1.,0.));
#391=DIRECTION('',(1.,1.5770213417971E-16,0.));
#392=DIRECTION('',(-1.57859836313889E-16,1.,0.));
#393=DIRECTION('',(1.,0.,0.));
#394=DIRECTION('',(-1.,0.,0.));
#395=DIRECTION('',(0.,0.,-1.));
#396=DIRECTION('',(1.,0.,0.));
#397=DIRECTION('',(0.,0.,-1.));
#398=DIRECTION('',(-1.,0.,0.));
#399=DIRECTION('',(0.,-1.,0.));
#400=DIRECTION('',(0.,0.,-1.));
#401=DIRECTION('',(0.,1.,0.));
#402=DIRECTION('',(0.,-1.,-4.33680868994202E-16));
#403=DIRECTION('',(0.,-1.44560289664734E-16,1.));
#404=DIRECTION('',(1.,0.,0.));
#405=DIRECTION('',(0.,0.,-1.));
#406=DIRECTION('',(0.,-1.,-4.33680868994202E-16));
#407=DIRECTION('',(1.,0.,0.));
#408=DIRECTION('',(0.,-4.33680868994202E-16,1.));
#409=DIRECTION('',(0.,-1.,-4.33680868994202E-16));
#410=DIRECTION('',(1.,0.,0.));
#411=DIRECTION('',(0.,1.,0.));
#412=DIRECTION('',(0.,0.,-1.));
#413=DIRECTION('',(-1.,0.,0.));
#414=DIRECTION('',(0.,-1.44560289664734E-16,1.));
#415=DIRECTION('',(0.,1.,1.44560289664734E-16));
#416=DIRECTION('',(0.,-1.44849410244063E-16,1.));
#417=DIRECTION('',(1.,0.,0.));
#418=DIRECTION('',(0.,0.,-1.));
#419=DIRECTION('',(0.,0.,1.));
#420=DIRECTION('',(1.,0.,0.));
#421=DIRECTION('',(1.,8.67361737988404E-17,0.));
#422=DIRECTION('',(-1.5770213417971E-16,1.,0.));
#423=DIRECTION('',(1.,0.,0.));
#424=DIRECTION('',(1.5770213417971E-16,-1.,0.));
#425=DIRECTION('',(0.,0.,1.));
#426=DIRECTION('',(1.,0.,0.));
#427=DIRECTION('',(-1.,0.,0.));
#428=DIRECTION('',(0.,0.,1.));
#429=DIRECTION('',(0.,0.,1.));
#430=DIRECTION('',(0.,-1.,0.));
#431=DIRECTION('',(0.,0.,-1.));
#432=DIRECTION('',(-1.5770213417971E-16,1.,0.));
#433=DIRECTION('',(0.,0.,1.));
#434=DIRECTION('',(1.,1.5770213417971E-16,0.));
#435=DIRECTION('',(-1.57859836313889E-16,1.,0.));
#436=DIRECTION('',(-1.,0.,0.));
#437=DIRECTION('',(0.,0.,1.));
#438=DIRECTION('',(0.,1.,1.27553196763001E-16));
#439=DIRECTION('',(0.,-1.27553196763001E-16,1.));
#440=DIRECTION('',(-1.5770213417971E-16,1.,0.));
#441=DIRECTION('',(-1.,-1.5770213417971E-16,0.));
#442=DIRECTION('',(1.57859836313889E-16,-1.,0.));
#443=DIRECTION('',(0.,0.,1.));
#444=DIRECTION('',(1.,0.,0.));
#445=CARTESIAN_POINT('',(0.,0.,0.));
#446=CARTESIAN_POINT('',(5.,-12.,58.));
#447=CARTESIAN_POINT('',(3.67761376907083E-16,-1.77635683940025E-15,-3.5527136788005E-15));
#448=CARTESIAN_POINT('',(0.,-6.,-22.));
#449=CARTESIAN_POINT('',(5.,-12.,58.));
#450=CARTESIAN_POINT('',(3.67761376907083E-16,-1.77635683940025E-15,-3.5527136788005E-15));
#451=CARTESIAN_POINT('',(0.,-6.,-22.));
#452=CARTESIAN_POINT('',(-5.,-12.,-10.));
#453=CARTESIAN_POINT('',(-5.,-12.,-10.));
#454=CARTESIAN_POINT('',(-5.,-12.,-6.93889390390723E-15));
#455=CARTESIAN_POINT('',(-5.,-9.54097911787244E-15,-3.46944695195361E-15));
#456=CARTESIAN_POINT('',(-5.,-1.27553196763001E-15,-3.46944695195361E-15));
#457=CARTESIAN_POINT('',(-5.,-9.54097911787244E-15,-10.));
#458=CARTESIAN_POINT('',(-5.,-9.54097911787244E-15,-10.));
#459=CARTESIAN_POINT('',(-5.,-9.54097911787244E-15,-10.));
#460=CARTESIAN_POINT('',(-5.,-9.54097911787244E-15,-10.));
#461=CARTESIAN_POINT('',(-6.,-1.27553196763001E-15,-3.46944695195361E-15));
#462=CARTESIAN_POINT('',(5.,-9.54097911787244E-15,-3.46944695195361E-15));
#463=CARTESIAN_POINT('',(5.,-9.54097911787244E-15,-10.));
#464=CARTESIAN_POINT('',(5.,-9.54097911787244E-15,-10.));
#465=CARTESIAN_POINT('',(-6.,0.,-10.));
#466=CARTESIAN_POINT('',(-6.,0.,-10.));
#467=CARTESIAN_POINT('',(5.,-9.54097911787244E-15,-3.46944695195361E-15));
#468=CARTESIAN_POINT('',(5.,-12.,-6.93889390390723E-15));
#469=CARTESIAN_POINT('',(5.,-12.,-10.));
#470=CARTESIAN_POINT('',(5.,-12.,-10.));
#471=CARTESIAN_POINT('',(5.,-9.54097911787244E-15,-10.));
#472=CARTESIAN_POINT('',(5.,-9.54097911787244E-15,-10.));
#473=CARTESIAN_POINT('',(-6.,-12.,-6.93889390390723E-15));
#474=CARTESIAN_POINT('',(-6.,-12.,-10.));
#475=CARTESIAN_POINT('',(-6.,-12.,-10.));
#476=CARTESIAN_POINT('',(-6.,-12.,58.));
#477=CARTESIAN_POINT('',(-6.,-12.,-22.));
#478=CARTESIAN_POINT('',(-6.,-12.,-22.));
#479=CARTESIAN_POINT('',(6.,-12.,-22.));
#480=CARTESIAN_POINT('',(6.,-12.,58.));
#481=CARTESIAN_POINT('',(6.,-12.,-10.));
#482=CARTESIAN_POINT('',(-6.,-12.,-10.));
#483=CARTESIAN_POINT('',(-6.,-12.,58.));
#484=CARTESIAN_POINT('',(-6.,-12.,-22.));
#485=CARTESIAN_POINT('',(-6.,4.,-22.));
#486=CARTESIAN_POINT('',(-6.,4.,-10.));
#487=CARTESIAN_POINT('',(-6.,4.,-10.));
#488=CARTESIAN_POINT('',(-6.,4.,-22.));
#489=CARTESIAN_POINT('',(-6.,-12.,-22.));
#490=CARTESIAN_POINT('',(6.,4.,-10.));
#491=CARTESIAN_POINT('',(6.,4.,-10.));
#492=CARTESIAN_POINT('',(-6.,4.,-10.));
#493=CARTESIAN_POINT('',(-6.,4.,-10.));
#494=CARTESIAN_POINT('',(-6.,4.,-22.));
#495=CARTESIAN_POINT('',(6.,4.,-22.));
#496=CARTESIAN_POINT('',(6.,-12.,-22.));
#497=CARTESIAN_POINT('',(-6.,-12.,-22.));
#498=CARTESIAN_POINT('',(6.,4.,-22.));
#499=CARTESIAN_POINT('',(-6.,4.,-22.));
#500=CARTESIAN_POINT('',(6.,-12.,-22.));
#501=CARTESIAN_POINT('',(3.67761376907083E-16,-1.77635683940025E-15,-3.5527136788005E-15));
#502=CARTESIAN_POINT('',(-5.,-12.,58.));
#503=CARTESIAN_POINT('',(-5.,-12.,58.));
#504=CARTESIAN_POINT('',(5.,-12.,58.));
#505=CARTESIAN_POINT('',(5.,-9.54097911787244E-15,58.));
#506=CARTESIAN_POINT('',(5.,-9.54097911787244E-15,58.));
#507=CARTESIAN_POINT('',(-6.,-9.54097911787244E-15,58.));
#508=CARTESIAN_POINT('',(-5.,-9.54097911787244E-15,58.));
#509=CARTESIAN_POINT('',(-5.,-9.54097911787244E-15,58.));
#510=CARTESIAN_POINT('',(-6.,-9.54097911787244E-15,58.));
#511=CARTESIAN_POINT('',(-6.,-12.,-6.93889390390723E-15));
#512=CARTESIAN_POINT('',(5.,-12.,-6.93889390390723E-15));
#513=CARTESIAN_POINT('',(-5.,-12.,-6.93889390390723E-15));
#514=CARTESIAN_POINT('',(5.,-12.,-10.));
#515=CARTESIAN_POINT('',(-5.,-12.,-10.));
#516=CARTESIAN_POINT('',(-6.,-12.,58.));
#517=CARTESIAN_POINT('',(5.,-9.54097911787244E-15,-3.46944695195361E-15));
#518=CARTESIAN_POINT('',(5.,-9.54097911787244E-15,-3.46944695195361E-15));
#519=CARTESIAN_POINT('',(5.,-9.54097911787244E-15,-10.));
#520=CARTESIAN_POINT('',(5.,-9.54097911787244E-15,-10.));
#521=CARTESIAN_POINT('',(-6.,-1.27553196763001E-15,-3.46944695195361E-15));
#522=CARTESIAN_POINT('',(-5.,-1.27553196763001E-15,-3.46944695195361E-15));
#523=CARTESIAN_POINT('',(-5.,-9.54097911787244E-15,-10.));
#524=CARTESIAN_POINT('',(-6.,0.,-10.));
#525=CARTESIAN_POINT('',(-5.,-9.54097911787244E-15,-3.46944695195361E-15));
#526=CARTESIAN_POINT('',(-5.,-9.54097911787244E-15,-10.));
#527=CARTESIAN_POINT('',(3.67761376907083E-16,-1.77635683940025E-15,-3.5527136788005E-15));
#528=MECHANICAL_DESIGN_GEOMETRIC_PRESENTATION_REPRESENTATION('',(#325,#326,
#327,#328,#329,#330,#331,#332),#529);
#529=(
GEOMETRIC_REPRESENTATION_CONTEXT(3)
GLOBAL_UNCERTAINTY_ASSIGNED_CONTEXT((#530))
GLOBAL_UNIT_ASSIGNED_CONTEXT((#536,#532,#531))
REPRESENTATION_CONTEXT('N1012F-QC12_Basicf','TOP_LEVEL_ASSEMBLY_PART')
);
#530=UNCERTAINTY_MEASURE_WITH_UNIT(LENGTH_MEASURE(2.E-5),#536,
'DISTANCE_ACCURACY_VALUE','Maximum Tolerance applied to model');
#531=(
NAMED_UNIT(*)
SI_UNIT($,.STERADIAN.)
SOLID_ANGLE_UNIT()
);
#532=(
CONVERSION_BASED_UNIT('DEGREE',#534)
NAMED_UNIT(#533)
PLANE_ANGLE_UNIT()
);
#533=DIMENSIONAL_EXPONENTS(0.,0.,0.,0.,0.,0.,0.);
#534=PLANE_ANGLE_MEASURE_WITH_UNIT(PLANE_ANGLE_MEASURE(0.0174532925),#535);
#535=(
NAMED_UNIT(*)
PLANE_ANGLE_UNIT()
SI_UNIT($,.RADIAN.)
);
#536=(
LENGTH_UNIT()
NAMED_UNIT(*)
SI_UNIT(.MILLI.,.METRE.)
);
ENDSEC;
END-ISO-10303-21;
