ISO-10303-21;
HEADER;
/* Generated by software containing ST-Developer
 * from STEP Tools, Inc. (www.steptools.com) 
 */
/* OPTION: using custom schema-name function */

FILE_DESCRIPTION(
/* description */ (''),
/* implementation_level */ '2;1');

FILE_NAME(
/* name */ 'STS540.375D1S.0Z5.stp',
/* time_stamp */ '2022-02-22T15:16:56+06:00',
/* author */ (''),
/* organization */ (''),
/* preprocessor_version */ 'ST-DEVELOPER v16.7',
/* originating_system */ 'SIEMENS PLM Software NX 12.0',
/* authorisation */ '');

FILE_SCHEMA (('AUTOMOTIVE_DESIGN { 1 0 10303 214 3 1 1 1 }'));
ENDSEC;

DATA;
#10=CONSTRUCTIVE_GEOMETRY_REPRESENTATION_RELATIONSHIP(
'supplemental geometry','',#34,#11);
#11=CONSTRUCTIVE_GEOMETRY_REPRESENTATION('supplemental geometry',(#189,
#190,#191),#298);
#12=GEOMETRICALLY_BOUNDED_WIREFRAME_SHAPE_REPRESENTATION(
'STS540.375D1S.0Z5-None',(#35),#298);
#13=PROPERTY_DEFINITION_REPRESENTATION(#17,#15);
#14=PROPERTY_DEFINITION_REPRESENTATION(#18,#16);
#15=REPRESENTATION('',(#19),#298);
#16=REPRESENTATION('',(#20),#298);
#17=PROPERTY_DEFINITION('pmi validation property','',#25);
#18=PROPERTY_DEFINITION('pmi validation property','',#25);
#19=VALUE_REPRESENTATION_ITEM('number of annotations',COUNT_MEASURE(0.));
#20=VALUE_REPRESENTATION_ITEM('number of views',COUNT_MEASURE(0.));
#21=SHAPE_REPRESENTATION_RELATIONSHIP('None',
'relationship between STS540.375D1S.0Z5-None and STS540.375D1S.0Z5-Non
e',#34,#23);
#22=SHAPE_REPRESENTATION_RELATIONSHIP('None',
'relationship between STS540.375D1S.0Z5-None and STS540.375D1S.0Z5-Non
e',#34,#12);
#23=ADVANCED_BREP_SHAPE_REPRESENTATION('STS540.375D1S.0Z5-None',(#52,#53,
#54),#298);
#24=SHAPE_DEFINITION_REPRESENTATION(#25,#34);
#25=PRODUCT_DEFINITION_SHAPE('','',#26);
#26=PRODUCT_DEFINITION(' ','',#28,#27);
#27=PRODUCT_DEFINITION_CONTEXT('part definition',#33,'design');
#28=PRODUCT_DEFINITION_FORMATION_WITH_SPECIFIED_SOURCE(' ',' ',#30,
 .NOT_KNOWN.);
#29=PRODUCT_RELATED_PRODUCT_CATEGORY('part','',(#30));
#30=PRODUCT('inpu2ACCD33Dlk3s','inpu2ACCD33Dlk3s',' ',(#31));
#31=PRODUCT_CONTEXT(' ',#33,'mechanical');
#32=APPLICATION_PROTOCOL_DEFINITION('international standard',
'automotive_design',2010,#33);
#33=APPLICATION_CONTEXT(
'core data for automotive mechanical design processes');
#34=SHAPE_REPRESENTATION('STS540.375D1S.0Z5-None',(#188),#298);
#35=GEOMETRIC_CURVE_SET('None',(#252,#253,#254,#255,#152));
#36=VERTEX_LOOP('',#127);
#37=SURFACE_STYLE_USAGE(.BOTH.,#40);
#38=SURFACE_STYLE_USAGE(.BOTH.,#41);
#39=SURFACE_STYLE_USAGE(.BOTH.,#42);
#40=SURFACE_SIDE_STYLE('',(#43));
#41=SURFACE_SIDE_STYLE('',(#44));
#42=SURFACE_SIDE_STYLE('',(#45));
#43=SURFACE_STYLE_FILL_AREA(#46);
#44=SURFACE_STYLE_FILL_AREA(#47);
#45=SURFACE_STYLE_FILL_AREA(#48);
#46=FILL_AREA_STYLE('',(#49));
#47=FILL_AREA_STYLE('',(#50));
#48=FILL_AREA_STYLE('',(#51));
#49=FILL_AREA_STYLE_COLOUR('',#186);
#50=FILL_AREA_STYLE_COLOUR('',#186);
#51=FILL_AREA_STYLE_COLOUR('',#187);
#52=MANIFOLD_SOLID_BREP('NOCUT',#55);
#53=MANIFOLD_SOLID_BREP('NOCUT',#56);
#54=MANIFOLD_SOLID_BREP('CUT',#57);
#55=CLOSED_SHELL('',(#73,#74,#75,#76));
#56=CLOSED_SHELL('',(#77,#78,#79));
#57=CLOSED_SHELL('',(#80,#81,#82));
#58=CYLINDRICAL_SURFACE('',#197,4.7625);
#59=CYLINDRICAL_SURFACE('',#201,4.7625);
#60=CONICAL_SURFACE('',#195,4.7625,45.0000000000005);
#61=CONICAL_SURFACE('',#205,2.55351295663786E-15,86.9999999999999);
#62=CONICAL_SURFACE('',#207,4.7625,0.00999999999999979);
#63=FACE_BOUND('',#94,.T.);
#64=FACE_BOUND('',#95,.T.);
#65=FACE_BOUND('',#96,.T.);
#66=FACE_BOUND('',#97,.T.);
#67=FACE_BOUND('',#99,.T.);
#68=FACE_BOUND('',#100,.T.);
#69=FACE_BOUND('',#103,.T.);
#70=FACE_BOUND('',#36,.T.);
#71=FACE_BOUND('',#104,.T.);
#72=FACE_BOUND('',#105,.T.);
#73=ADVANCED_FACE('',(#88),#83,.T.);
#74=ADVANCED_FACE('',(#63,#64),#60,.T.);
#75=ADVANCED_FACE('',(#65,#66),#58,.T.);
#76=ADVANCED_FACE('',(#89),#84,.F.);
#77=ADVANCED_FACE('',(#67,#68),#59,.T.);
#78=ADVANCED_FACE('',(#90),#85,.T.);
#79=ADVANCED_FACE('',(#91),#86,.T.);
#80=ADVANCED_FACE('',(#69,#70),#61,.F.);
#81=ADVANCED_FACE('',(#71,#72),#62,.T.);
#82=ADVANCED_FACE('',(#92),#87,.F.);
#83=PLANE('',#193);
#84=PLANE('',#198);
#85=PLANE('',#202);
#86=PLANE('',#203);
#87=PLANE('',#208);
#88=FACE_OUTER_BOUND('',#93,.T.);
#89=FACE_OUTER_BOUND('',#98,.T.);
#90=FACE_OUTER_BOUND('',#101,.T.);
#91=FACE_OUTER_BOUND('',#102,.T.);
#92=FACE_OUTER_BOUND('',#106,.T.);
#93=EDGE_LOOP('',(#107));
#94=EDGE_LOOP('',(#108));
#95=EDGE_LOOP('',(#109));
#96=EDGE_LOOP('',(#110));
#97=EDGE_LOOP('',(#111));
#98=EDGE_LOOP('',(#112));
#99=EDGE_LOOP('',(#113));
#100=EDGE_LOOP('',(#114));
#101=EDGE_LOOP('',(#115));
#102=EDGE_LOOP('',(#116));
#103=EDGE_LOOP('',(#117));
#104=EDGE_LOOP('',(#118));
#105=EDGE_LOOP('',(#119));
#106=EDGE_LOOP('',(#120));
#107=ORIENTED_EDGE('',*,*,#129,.F.);
#108=ORIENTED_EDGE('',*,*,#129,.T.);
#109=ORIENTED_EDGE('',*,*,#130,.F.);
#110=ORIENTED_EDGE('',*,*,#131,.F.);
#111=ORIENTED_EDGE('',*,*,#130,.T.);
#112=ORIENTED_EDGE('',*,*,#131,.T.);
#113=ORIENTED_EDGE('',*,*,#132,.F.);
#114=ORIENTED_EDGE('',*,*,#133,.F.);
#115=ORIENTED_EDGE('',*,*,#132,.T.);
#116=ORIENTED_EDGE('',*,*,#133,.T.);
#117=ORIENTED_EDGE('',*,*,#134,.T.);
#118=ORIENTED_EDGE('',*,*,#135,.T.);
#119=ORIENTED_EDGE('',*,*,#134,.F.);
#120=ORIENTED_EDGE('',*,*,#135,.F.);
#121=VERTEX_POINT('',#273);
#122=VERTEX_POINT('',#276);
#123=VERTEX_POINT('',#279);
#124=VERTEX_POINT('',#283);
#125=VERTEX_POINT('',#285);
#126=VERTEX_POINT('',#290);
#127=VERTEX_POINT('',#291);
#128=VERTEX_POINT('',#294);
#129=EDGE_CURVE('',#121,#121,#136,.T.);
#130=EDGE_CURVE('',#122,#122,#137,.T.);
#131=EDGE_CURVE('',#123,#123,#138,.T.);
#132=EDGE_CURVE('',#124,#124,#139,.T.);
#133=EDGE_CURVE('',#125,#125,#140,.T.);
#134=EDGE_CURVE('',#126,#126,#141,.T.);
#135=EDGE_CURVE('',#128,#128,#142,.T.);
#136=CIRCLE('',#192,4.4577);
#137=CIRCLE('',#194,4.7625);
#138=CIRCLE('',#196,4.7625);
#139=CIRCLE('',#199,4.7625);
#140=CIRCLE('',#200,4.7625);
#141=CIRCLE('',#204,4.7625);
#142=CIRCLE('',#206,4.76028343182746);
#143=CURVE_STYLE('',#148,POSITIVE_LENGTH_MEASURE(0.18),#147);
#144=CURVE_STYLE('',#149,POSITIVE_LENGTH_MEASURE(0.18),#184);
#145=CURVE_STYLE('',#150,POSITIVE_LENGTH_MEASURE(0.18),#184);
#146=CURVE_STYLE('',#151,POSITIVE_LENGTH_MEASURE(0.18),#184);
#147=DRAUGHTING_PRE_DEFINED_COLOUR('blue');
#148=DRAUGHTING_PRE_DEFINED_CURVE_FONT('continuous');
#149=DRAUGHTING_PRE_DEFINED_CURVE_FONT('continuous');
#150=DRAUGHTING_PRE_DEFINED_CURVE_FONT('continuous');
#151=DRAUGHTING_PRE_DEFINED_CURVE_FONT('continuous');
#152=B_SPLINE_CURVE_WITH_KNOTS('CUTTING PART LINE',3,(#256,#257,#258,#259,
#260,#261,#262,#263,#264,#265,#266,#267,#268),.UNSPECIFIED.,.T.,.F.,(4,
3,3,3,4),(0.,0.366208190058749,0.503724720865207,0.862735846206359,1.),
 .UNSPECIFIED.);
#153=PRESENTATION_LAYER_ASSIGNMENT('1','Layer 1',(#252,#253,#254,#255,#152,
#189,#190,#191,#52,#53,#54));
#154=STYLED_ITEM('',(#165),#252);
#155=STYLED_ITEM('',(#166),#253);
#156=STYLED_ITEM('',(#167),#254);
#157=STYLED_ITEM('',(#168),#255);
#158=STYLED_ITEM('',(#169),#152);
#159=STYLED_ITEM('',(#170),#189);
#160=STYLED_ITEM('',(#171),#190);
#161=STYLED_ITEM('',(#172),#191);
#162=STYLED_ITEM('',(#173),#52);
#163=STYLED_ITEM('',(#174),#53);
#164=STYLED_ITEM('',(#175),#54);
#165=PRESENTATION_STYLE_ASSIGNMENT((#176));
#166=PRESENTATION_STYLE_ASSIGNMENT((#177));
#167=PRESENTATION_STYLE_ASSIGNMENT((#178));
#168=PRESENTATION_STYLE_ASSIGNMENT((#179));
#169=PRESENTATION_STYLE_ASSIGNMENT((#143));
#170=PRESENTATION_STYLE_ASSIGNMENT((#144));
#171=PRESENTATION_STYLE_ASSIGNMENT((#145));
#172=PRESENTATION_STYLE_ASSIGNMENT((#146));
#173=PRESENTATION_STYLE_ASSIGNMENT((#37));
#174=PRESENTATION_STYLE_ASSIGNMENT((#38));
#175=PRESENTATION_STYLE_ASSIGNMENT((#39));
#176=POINT_STYLE('',#180,POSITIVE_LENGTH_MEASURE(3.),#184);
#177=POINT_STYLE('',#181,POSITIVE_LENGTH_MEASURE(3.),#184);
#178=POINT_STYLE('',#182,POSITIVE_LENGTH_MEASURE(3.),#184);
#179=POINT_STYLE('',#183,POSITIVE_LENGTH_MEASURE(3.),#185);
#180=PRE_DEFINED_POINT_MARKER_SYMBOL('plus');
#181=PRE_DEFINED_POINT_MARKER_SYMBOL('plus');
#182=PRE_DEFINED_POINT_MARKER_SYMBOL('plus');
#183=PRE_DEFINED_POINT_MARKER_SYMBOL('plus');
#184=COLOUR_RGB('Pale Maroon',0.811749446860456,0.603921568627451,0.611749446860456);
#185=COLOUR_RGB('Medium Royal',0.2,0.4,0.8);
#186=COLOUR_RGB('Medium Gray',0.490196078431373,0.490196078431373,0.490196078431373);
#187=COLOUR_RGB('Light Gray',0.8,0.8,0.8);
#188=AXIS2_PLACEMENT_3D('',#251,#209,#210);
#189=AXIS2_PLACEMENT_3D('PCS',#269,#211,#212);
#190=AXIS2_PLACEMENT_3D('MCS',#270,#213,#214);
#191=AXIS2_PLACEMENT_3D('CIP',#271,#215,#216);
#192=AXIS2_PLACEMENT_3D('',#272,#217,#218);
#193=AXIS2_PLACEMENT_3D('',#274,#219,#220);
#194=AXIS2_PLACEMENT_3D('',#275,#221,#222);
#195=AXIS2_PLACEMENT_3D('',#277,#223,#224);
#196=AXIS2_PLACEMENT_3D('',#278,#225,#226);
#197=AXIS2_PLACEMENT_3D('',#280,#227,#228);
#198=AXIS2_PLACEMENT_3D('',#281,#229,#230);
#199=AXIS2_PLACEMENT_3D('',#282,#231,#232);
#200=AXIS2_PLACEMENT_3D('',#284,#233,#234);
#201=AXIS2_PLACEMENT_3D('',#286,#235,#236);
#202=AXIS2_PLACEMENT_3D('',#287,#237,#238);
#203=AXIS2_PLACEMENT_3D('',#288,#239,#240);
#204=AXIS2_PLACEMENT_3D('',#289,#241,#242);
#205=AXIS2_PLACEMENT_3D('',#292,#243,#244);
#206=AXIS2_PLACEMENT_3D('',#293,#245,#246);
#207=AXIS2_PLACEMENT_3D('',#295,#247,#248);
#208=AXIS2_PLACEMENT_3D('',#296,#249,#250);
#209=DIRECTION('',(0.,0.,1.));
#210=DIRECTION('',(1.,0.,0.));
#211=DIRECTION('',(0.,0.,1.));
#212=DIRECTION('',(1.,0.,0.));
#213=DIRECTION('',(0.,0.,1.));
#214=DIRECTION('',(1.,0.,0.));
#215=DIRECTION('',(0.,0.,1.));
#216=DIRECTION('',(1.,0.,0.));
#217=DIRECTION('',(0.,0.,-1.));
#218=DIRECTION('',(-1.,0.,0.));
#219=DIRECTION('',(0.,0.,1.));
#220=DIRECTION('',(-1.,0.,0.));
#221=DIRECTION('',(0.,0.,-1.));
#222=DIRECTION('',(-1.,0.,0.));
#223=DIRECTION('',(0.,0.,-1.));
#224=DIRECTION('',(1.,0.,-2.76240162382936E-17));
#225=DIRECTION('',(0.,0.,-1.));
#226=DIRECTION('',(1.,0.,0.));
#227=DIRECTION('',(0.,0.,-1.));
#228=DIRECTION('',(1.,0.,0.));
#229=DIRECTION('',(0.,0.,1.));
#230=DIRECTION('',(-1.,0.,0.));
#231=DIRECTION('',(0.,0.,-1.));
#232=DIRECTION('',(-1.,0.,0.));
#233=DIRECTION('',(0.,0.,1.));
#234=DIRECTION('',(1.,0.,0.));
#235=DIRECTION('',(0.,0.,-1.));
#236=DIRECTION('',(1.,0.,0.));
#237=DIRECTION('',(0.,0.,-1.));
#238=DIRECTION('',(1.,0.,0.));
#239=DIRECTION('',(0.,0.,1.));
#240=DIRECTION('',(-1.,0.,0.));
#241=DIRECTION('',(0.,0.,-1.));
#242=DIRECTION('',(-1.,0.,0.));
#243=DIRECTION('',(0.,0.,-1.));
#244=DIRECTION('',(1.,0.,2.00008611101432E-18));
#245=DIRECTION('',(0.,0.,-1.));
#246=DIRECTION('',(-1.,0.,0.));
#247=DIRECTION('',(0.,0.,-1.));
#248=DIRECTION('',(1.,0.,1.68657426593188E-14));
#249=DIRECTION('',(0.,0.,-1.));
#250=DIRECTION('',(1.,0.,0.));
#251=CARTESIAN_POINT('',(0.,0.,0.));
#252=CARTESIAN_POINT('',(0.,0.,45.237));
#253=CARTESIAN_POINT('',(0.,0.,0.));
#254=CARTESIAN_POINT('',(0.,0.,-18.263));
#255=CARTESIAN_POINT('CRP',(-4.7625,0.,-18.263));
#256=CARTESIAN_POINT('',(-4.76028343182746,0.,-5.56300000000221));
#257=CARTESIAN_POINT('',(-4.76102228788497,0.,-9.79633333333515));
#258=CARTESIAN_POINT('',(-4.76176114394249,0.,-14.0296666666681));
#259=CARTESIAN_POINT('',(-4.7625,0.,-18.2630000000005));
#260=CARTESIAN_POINT('',(-3.175,0.,-18.1798026503882));
#261=CARTESIAN_POINT('',(-1.5875,0.,-18.0966053007763));
#262=CARTESIAN_POINT('',(-1.33226762955019E-15,0.,-18.0134079511645));
#263=CARTESIAN_POINT('',(0.,0.,-13.863271967443));
#264=CARTESIAN_POINT('',(0.,0.,-9.7131359837215));
#265=CARTESIAN_POINT('',(0.,0.,-5.563));
#266=CARTESIAN_POINT('',(-1.58676114394249,0.,-5.563));
#267=CARTESIAN_POINT('',(-3.17352228788497,0.,-5.563));
#268=CARTESIAN_POINT('',(-4.76028343182746,0.,-5.563));
#269=CARTESIAN_POINT('',(0.,0.,45.237));
#270=CARTESIAN_POINT('',(0.,0.,0.));
#271=CARTESIAN_POINT('',(0.,0.,-18.263));
#272=CARTESIAN_POINT('',(0.,0.,45.237));
#273=CARTESIAN_POINT('',(-4.4577,0.,45.237));
#274=CARTESIAN_POINT('',(4.4577,0.,45.237));
#275=CARTESIAN_POINT('',(0.,0.,44.9322));
#276=CARTESIAN_POINT('',(-4.7625,0.,44.9322));
#277=CARTESIAN_POINT('',(0.,0.,44.9322));
#278=CARTESIAN_POINT('',(0.,0.,0.));
#279=CARTESIAN_POINT('',(4.7625,0.,0.));
#280=CARTESIAN_POINT('',(0.,0.,0.));
#281=CARTESIAN_POINT('',(0.,0.,0.));
#282=CARTESIAN_POINT('',(0.,0.,-5.563));
#283=CARTESIAN_POINT('',(-4.7625,0.,-5.563));
#284=CARTESIAN_POINT('',(0.,0.,0.));
#285=CARTESIAN_POINT('',(4.7625,0.,0.));
#286=CARTESIAN_POINT('',(0.,0.,0.));
#287=CARTESIAN_POINT('',(4.76028343182746,0.,-5.563));
#288=CARTESIAN_POINT('',(0.,0.,0.));
#289=CARTESIAN_POINT('',(0.,0.,-18.263));
#290=CARTESIAN_POINT('',(-4.7625,0.,-18.263));
#291=CARTESIAN_POINT('',(-2.55351295663786E-15,0.,-18.0134079511645));
#292=CARTESIAN_POINT('',(0.,0.,-18.0134079511645));
#293=CARTESIAN_POINT('',(0.,0.,-5.563));
#294=CARTESIAN_POINT('',(-4.76028343182746,0.,-5.563));
#295=CARTESIAN_POINT('',(0.,0.,-18.263));
#296=CARTESIAN_POINT('',(0.,0.,-5.563));
#297=MECHANICAL_DESIGN_GEOMETRIC_PRESENTATION_REPRESENTATION('',(#154,#155,
#156,#157,#158,#159,#160,#161,#162,#163,#164),#298);
#298=(
GEOMETRIC_REPRESENTATION_CONTEXT(3)
GLOBAL_UNCERTAINTY_ASSIGNED_CONTEXT((#299))
GLOBAL_UNIT_ASSIGNED_CONTEXT((#305,#301,#300))
REPRESENTATION_CONTEXT('STS540.375D1S','TOP_LEVEL_ASSEMBLY_PART')
);
#299=UNCERTAINTY_MEASURE_WITH_UNIT(LENGTH_MEASURE(2.E-5),#305,
'DISTANCE_ACCURACY_VALUE','Maximum Tolerance applied to model');
#300=(
NAMED_UNIT(*)
SI_UNIT($,.STERADIAN.)
SOLID_ANGLE_UNIT()
);
#301=(
CONVERSION_BASED_UNIT('DEGREE',#303)
NAMED_UNIT(#302)
PLANE_ANGLE_UNIT()
);
#302=DIMENSIONAL_EXPONENTS(0.,0.,0.,0.,0.,0.,0.);
#303=PLANE_ANGLE_MEASURE_WITH_UNIT(PLANE_ANGLE_MEASURE(0.0174532925),#304);
#304=(
NAMED_UNIT(*)
PLANE_ANGLE_UNIT()
SI_UNIT($,.RADIAN.)
);
#305=(
LENGTH_UNIT()
NAMED_UNIT(*)
SI_UNIT(.MILLI.,.METRE.)
);
ENDSEC;
END-ISO-10303-21;
