ISO-10303-21;
HEADER;
/* Generated by software containing ST-Developer
 * from STEP Tools, Inc. (www.steptools.com) 
 */
/* OPTION: using custom schema-name function */

FILE_DESCRIPTION(
/* description */ (''),
/* implementation_level */ '2;1');

FILE_NAME(
/* name */ 'STR540.500D2R060.0Z5_Basic.stp',
/* time_stamp */ '2022-03-02T12:52:02+05:00',
/* author */ (''),
/* organization */ (''),
/* preprocessor_version */ 'ST-DEVELOPER v16.7',
/* originating_system */ 'SIEMENS PLM Software NX 12.0',
/* authorisation */ '');

FILE_SCHEMA (('AUTOMOTIVE_DESIGN { 1 0 10303 214 3 1 1 1 }'));
ENDSEC;

DATA;
#10=CONSTRUCTIVE_GEOMETRY_REPRESENTATION_RELATIONSHIP(
'supplemental geometry','',#34,#11);
#11=CONSTRUCTIVE_GEOMETRY_REPRESENTATION('supplemental geometry',(#367,
#368,#369),#596);
#12=GEOMETRICALLY_BOUNDED_WIREFRAME_SHAPE_REPRESENTATION(
'STR540.500D2R060.0Z5_Basic-None',(#35),#596);
#13=PROPERTY_DEFINITION_REPRESENTATION(#17,#15);
#14=PROPERTY_DEFINITION_REPRESENTATION(#18,#16);
#15=REPRESENTATION('',(#19),#596);
#16=REPRESENTATION('',(#20),#596);
#17=PROPERTY_DEFINITION('pmi validation property','',#25);
#18=PROPERTY_DEFINITION('pmi validation property','',#25);
#19=VALUE_REPRESENTATION_ITEM('number of annotations',COUNT_MEASURE(0.));
#20=VALUE_REPRESENTATION_ITEM('number of views',COUNT_MEASURE(0.));
#21=SHAPE_REPRESENTATION_RELATIONSHIP('None',
'relationship between STR540.500D2R060.0Z5_Basic-None and STR540.500D2
R060.0Z5_Basic-None',#34,#23);
#22=SHAPE_REPRESENTATION_RELATIONSHIP('None',
'relationship between STR540.500D2R060.0Z5_Basic-None and STR540.500D2
R060.0Z5_Basic-None',#34,#12);
#23=ADVANCED_BREP_SHAPE_REPRESENTATION(
'STR540.500D2R060.0Z5_Basic-None',(#58,#59,#60,#61),#596);
#24=SHAPE_DEFINITION_REPRESENTATION(#25,#34);
#25=PRODUCT_DEFINITION_SHAPE('','',#26);
#26=PRODUCT_DEFINITION(' ','',#28,#27);
#27=PRODUCT_DEFINITION_CONTEXT('part definition',#33,'design');
#28=PRODUCT_DEFINITION_FORMATION_WITH_SPECIFIED_SOURCE(' ',' ',#30,
 .NOT_KNOWN.);
#29=PRODUCT_RELATED_PRODUCT_CATEGORY('part','',(#30));
#30=PRODUCT('inpu0964B760k3ov','inpu0964B760k3ov',' ',(#31));
#31=PRODUCT_CONTEXT(' ',#33,'mechanical');
#32=APPLICATION_PROTOCOL_DEFINITION('international standard',
'automotive_design',2010,#33);
#33=APPLICATION_CONTEXT(
'core data for automotive mechanical design processes');
#34=SHAPE_REPRESENTATION('STR540.500D2R060.0Z5_Basic-None',(#365),#596);
#35=GEOMETRIC_CURVE_SET('None',(#500,#501,#502,#503,#283,#284,#285,#286,
#287,#288));
#36=TOROIDAL_SURFACE('',#389,4.82579158984413,1.524);
#37=TOROIDAL_SURFACE('',#402,4.82579158984413,1.524);
#38=SURFACE_STYLE_USAGE(.BOTH.,#42);
#39=SURFACE_STYLE_USAGE(.BOTH.,#43);
#40=SURFACE_STYLE_USAGE(.BOTH.,#44);
#41=SURFACE_STYLE_USAGE(.BOTH.,#45);
#42=SURFACE_SIDE_STYLE('',(#46));
#43=SURFACE_SIDE_STYLE('',(#47));
#44=SURFACE_SIDE_STYLE('',(#48));
#45=SURFACE_SIDE_STYLE('',(#49));
#46=SURFACE_STYLE_FILL_AREA(#50);
#47=SURFACE_STYLE_FILL_AREA(#51);
#48=SURFACE_STYLE_FILL_AREA(#52);
#49=SURFACE_STYLE_FILL_AREA(#53);
#50=FILL_AREA_STYLE('',(#54));
#51=FILL_AREA_STYLE('',(#55));
#52=FILL_AREA_STYLE('',(#56));
#53=FILL_AREA_STYLE('',(#57));
#54=FILL_AREA_STYLE_COLOUR('',#363);
#55=FILL_AREA_STYLE_COLOUR('',#363);
#56=FILL_AREA_STYLE_COLOUR('',#364);
#57=FILL_AREA_STYLE_COLOUR('',#364);
#58=MANIFOLD_SOLID_BREP('NOCUT',#62);
#59=MANIFOLD_SOLID_BREP('NOCUT',#63);
#60=MANIFOLD_SOLID_BREP('CUT',#64);
#61=MANIFOLD_SOLID_BREP('CUT',#65);
#62=CLOSED_SHELL('',(#79,#80,#81,#82));
#63=CLOSED_SHELL('',(#83,#84,#85));
#64=CLOSED_SHELL('',(#86,#87,#88,#89,#90));
#65=CLOSED_SHELL('',(#91,#92,#93,#94,#95));
#66=CYLINDRICAL_SURFACE('',#375,6.35);
#67=CYLINDRICAL_SURFACE('',#379,6.35);
#68=CONICAL_SURFACE('',#373,6.35,45.0000000000003);
#69=CONICAL_SURFACE('',#384,8.75740069425088E-16,87.5);
#70=CONICAL_SURFACE('',#392,6.34999999419705,0.0100000000000247);
#71=CONICAL_SURFACE('',#398,6.34999999419705,0.0100000000000247);
#72=CONICAL_SURFACE('',#403,8.75740069425088E-16,87.5);
#73=FACE_BOUND('',#119,.T.);
#74=FACE_BOUND('',#120,.T.);
#75=FACE_BOUND('',#121,.T.);
#76=FACE_BOUND('',#122,.T.);
#77=FACE_BOUND('',#124,.T.);
#78=FACE_BOUND('',#125,.T.);
#79=ADVANCED_FACE('',(#104),#96,.T.);
#80=ADVANCED_FACE('',(#73,#74),#68,.T.);
#81=ADVANCED_FACE('',(#75,#76),#66,.T.);
#82=ADVANCED_FACE('',(#105),#97,.F.);
#83=ADVANCED_FACE('',(#77,#78),#67,.T.);
#84=ADVANCED_FACE('',(#106),#98,.T.);
#85=ADVANCED_FACE('',(#107),#99,.T.);
#86=ADVANCED_FACE('',(#108),#69,.F.);
#87=ADVANCED_FACE('',(#109),#36,.T.);
#88=ADVANCED_FACE('',(#110),#70,.T.);
#89=ADVANCED_FACE('',(#111),#100,.F.);
#90=ADVANCED_FACE('',(#112),#101,.T.);
#91=ADVANCED_FACE('',(#113),#102,.F.);
#92=ADVANCED_FACE('',(#114),#71,.T.);
#93=ADVANCED_FACE('',(#115),#37,.T.);
#94=ADVANCED_FACE('',(#116),#72,.F.);
#95=ADVANCED_FACE('',(#117),#103,.F.);
#96=PLANE('',#371);
#97=PLANE('',#376);
#98=PLANE('',#380);
#99=PLANE('',#381);
#100=PLANE('',#393);
#101=PLANE('',#394);
#102=PLANE('',#396);
#103=PLANE('',#404);
#104=FACE_OUTER_BOUND('',#118,.T.);
#105=FACE_OUTER_BOUND('',#123,.T.);
#106=FACE_OUTER_BOUND('',#126,.T.);
#107=FACE_OUTER_BOUND('',#127,.T.);
#108=FACE_OUTER_BOUND('',#128,.T.);
#109=FACE_OUTER_BOUND('',#129,.T.);
#110=FACE_OUTER_BOUND('',#130,.T.);
#111=FACE_OUTER_BOUND('',#131,.T.);
#112=FACE_OUTER_BOUND('',#132,.T.);
#113=FACE_OUTER_BOUND('',#133,.T.);
#114=FACE_OUTER_BOUND('',#134,.T.);
#115=FACE_OUTER_BOUND('',#135,.T.);
#116=FACE_OUTER_BOUND('',#136,.T.);
#117=FACE_OUTER_BOUND('',#137,.T.);
#118=EDGE_LOOP('',(#138));
#119=EDGE_LOOP('',(#139));
#120=EDGE_LOOP('',(#140));
#121=EDGE_LOOP('',(#141));
#122=EDGE_LOOP('',(#142));
#123=EDGE_LOOP('',(#143));
#124=EDGE_LOOP('',(#144));
#125=EDGE_LOOP('',(#145));
#126=EDGE_LOOP('',(#146));
#127=EDGE_LOOP('',(#147));
#128=EDGE_LOOP('',(#148,#149,#150,#151));
#129=EDGE_LOOP('',(#152,#153,#154,#155,#156,#157));
#130=EDGE_LOOP('',(#158,#159,#160,#161,#162,#163));
#131=EDGE_LOOP('',(#164,#165,#166));
#132=EDGE_LOOP('',(#167,#168,#169,#170,#171,#172,#173));
#133=EDGE_LOOP('',(#174,#175));
#134=EDGE_LOOP('',(#176,#177,#178,#179));
#135=EDGE_LOOP('',(#180,#181,#182,#183));
#136=EDGE_LOOP('',(#184,#185,#186));
#137=EDGE_LOOP('',(#187,#188,#189,#190,#191,#192,#193));
#138=ORIENTED_EDGE('',*,*,#216,.F.);
#139=ORIENTED_EDGE('',*,*,#216,.T.);
#140=ORIENTED_EDGE('',*,*,#217,.F.);
#141=ORIENTED_EDGE('',*,*,#218,.T.);
#142=ORIENTED_EDGE('',*,*,#217,.T.);
#143=ORIENTED_EDGE('',*,*,#218,.F.);
#144=ORIENTED_EDGE('',*,*,#219,.F.);
#145=ORIENTED_EDGE('',*,*,#220,.T.);
#146=ORIENTED_EDGE('',*,*,#219,.T.);
#147=ORIENTED_EDGE('',*,*,#220,.F.);
#148=ORIENTED_EDGE('',*,*,#221,.F.);
#149=ORIENTED_EDGE('',*,*,#222,.T.);
#150=ORIENTED_EDGE('',*,*,#223,.T.);
#151=ORIENTED_EDGE('',*,*,#224,.F.);
#152=ORIENTED_EDGE('',*,*,#222,.F.);
#153=ORIENTED_EDGE('',*,*,#225,.F.);
#154=ORIENTED_EDGE('',*,*,#226,.T.);
#155=ORIENTED_EDGE('',*,*,#227,.T.);
#156=ORIENTED_EDGE('',*,*,#228,.F.);
#157=ORIENTED_EDGE('',*,*,#223,.F.);
#158=ORIENTED_EDGE('',*,*,#226,.F.);
#159=ORIENTED_EDGE('',*,*,#229,.T.);
#160=ORIENTED_EDGE('',*,*,#230,.T.);
#161=ORIENTED_EDGE('',*,*,#231,.T.);
#162=ORIENTED_EDGE('',*,*,#232,.T.);
#163=ORIENTED_EDGE('',*,*,#227,.F.);
#164=ORIENTED_EDGE('',*,*,#233,.T.);
#165=ORIENTED_EDGE('',*,*,#231,.F.);
#166=ORIENTED_EDGE('',*,*,#230,.F.);
#167=ORIENTED_EDGE('',*,*,#225,.T.);
#168=ORIENTED_EDGE('',*,*,#221,.T.);
#169=ORIENTED_EDGE('',*,*,#224,.T.);
#170=ORIENTED_EDGE('',*,*,#228,.T.);
#171=ORIENTED_EDGE('',*,*,#232,.F.);
#172=ORIENTED_EDGE('',*,*,#233,.F.);
#173=ORIENTED_EDGE('',*,*,#229,.F.);
#174=ORIENTED_EDGE('',*,*,#234,.F.);
#175=ORIENTED_EDGE('',*,*,#235,.T.);
#176=ORIENTED_EDGE('',*,*,#236,.T.);
#177=ORIENTED_EDGE('',*,*,#237,.F.);
#178=ORIENTED_EDGE('',*,*,#238,.T.);
#179=ORIENTED_EDGE('',*,*,#234,.T.);
#180=ORIENTED_EDGE('',*,*,#239,.F.);
#181=ORIENTED_EDGE('',*,*,#240,.F.);
#182=ORIENTED_EDGE('',*,*,#241,.F.);
#183=ORIENTED_EDGE('',*,*,#237,.T.);
#184=ORIENTED_EDGE('',*,*,#240,.T.);
#185=ORIENTED_EDGE('',*,*,#242,.F.);
#186=ORIENTED_EDGE('',*,*,#243,.F.);
#187=ORIENTED_EDGE('',*,*,#239,.T.);
#188=ORIENTED_EDGE('',*,*,#236,.F.);
#189=ORIENTED_EDGE('',*,*,#235,.F.);
#190=ORIENTED_EDGE('',*,*,#238,.F.);
#191=ORIENTED_EDGE('',*,*,#241,.T.);
#192=ORIENTED_EDGE('',*,*,#243,.T.);
#193=ORIENTED_EDGE('',*,*,#242,.T.);
#194=VERTEX_POINT('',#529);
#195=VERTEX_POINT('',#532);
#196=VERTEX_POINT('',#535);
#197=VERTEX_POINT('',#539);
#198=VERTEX_POINT('',#541);
#199=VERTEX_POINT('',#546);
#200=VERTEX_POINT('',#547);
#201=VERTEX_POINT('',#549);
#202=VERTEX_POINT('',#551);
#203=VERTEX_POINT('',#555);
#204=VERTEX_POINT('',#557);
#205=VERTEX_POINT('',#559);
#206=VERTEX_POINT('',#563);
#207=VERTEX_POINT('',#565);
#208=VERTEX_POINT('',#567);
#209=VERTEX_POINT('',#574);
#210=VERTEX_POINT('',#575);
#211=VERTEX_POINT('',#579);
#212=VERTEX_POINT('',#581);
#213=VERTEX_POINT('',#585);
#214=VERTEX_POINT('',#587);
#215=VERTEX_POINT('',#591);
#216=EDGE_CURVE('',#194,#194,#247,.T.);
#217=EDGE_CURVE('',#195,#195,#248,.T.);
#218=EDGE_CURVE('',#196,#196,#249,.T.);
#219=EDGE_CURVE('',#197,#197,#250,.T.);
#220=EDGE_CURVE('',#198,#198,#251,.T.);
#221=EDGE_CURVE('',#199,#200,#293,.T.);
#222=EDGE_CURVE('',#199,#201,#252,.T.);
#223=EDGE_CURVE('',#201,#202,#253,.T.);
#224=EDGE_CURVE('',#200,#202,#294,.T.);
#225=EDGE_CURVE('',#203,#199,#254,.T.);
#226=EDGE_CURVE('',#203,#204,#255,.T.);
#227=EDGE_CURVE('',#204,#205,#256,.T.);
#228=EDGE_CURVE('',#202,#205,#257,.T.);
#229=EDGE_CURVE('',#203,#206,#295,.T.);
#230=EDGE_CURVE('',#206,#207,#258,.T.);
#231=EDGE_CURVE('',#207,#208,#259,.T.);
#232=EDGE_CURVE('',#208,#205,#296,.T.);
#233=EDGE_CURVE('',#206,#208,#297,.T.);
#234=EDGE_CURVE('',#209,#210,#260,.T.);
#235=EDGE_CURVE('',#209,#210,#298,.T.);
#236=EDGE_CURVE('',#210,#211,#299,.T.);
#237=EDGE_CURVE('',#212,#211,#261,.T.);
#238=EDGE_CURVE('',#212,#209,#300,.T.);
#239=EDGE_CURVE('',#213,#211,#262,.T.);
#240=EDGE_CURVE('',#214,#213,#263,.T.);
#241=EDGE_CURVE('',#212,#214,#264,.T.);
#242=EDGE_CURVE('',#215,#213,#301,.T.);
#243=EDGE_CURVE('',#214,#215,#302,.T.);
#244=DRAUGHTING_PRE_DEFINED_COLOUR('blue');
#245=(
BOUNDED_CURVE()
B_SPLINE_CURVE(3,(#509,#510,#511,#512,#513,#514,#515,#516,#517,#518,#519,
#520,#521,#522,#523,#524),.UNSPECIFIED.,.T.,.F.)
B_SPLINE_CURVE_WITH_KNOTS((4,3,3,3,3,4),(0.,0.380984660250381,0.420333368809279,
0.496512764865109,0.898526078592648,1.),.UNSPECIFIED.)
CURVE()
GEOMETRIC_REPRESENTATION_ITEM()
RATIONAL_B_SPLINE_CURVE((1.,1.,1.,1.,0.794300010000562,0.794300010000562,
1.,1.,1.,1.,1.,1.,1.,1.,1.,1.))
REPRESENTATION_ITEM('CUTTING PART LINE')
);
#246=CIRCLE('',#366,1.524);
#247=CIRCLE('',#370,5.74039999999999);
#248=CIRCLE('',#372,6.35);
#249=CIRCLE('',#374,6.35);
#250=CIRCLE('',#377,6.35);
#251=CIRCLE('',#378,6.35);
#252=CIRCLE('',#382,4.75931564349936);
#253=CIRCLE('',#383,4.75931564349936);
#254=CIRCLE('',#385,1.524);
#255=CIRCLE('',#386,6.34979156663228);
#256=CIRCLE('',#387,6.34979156663228);
#257=CIRCLE('',#388,1.524);
#258=CIRCLE('',#390,6.34563336650306);
#259=CIRCLE('',#391,6.34563336650306);
#260=CIRCLE('',#395,6.34563336650306);
#261=CIRCLE('',#397,6.34979156663228);
#262=CIRCLE('',#399,1.524);
#263=CIRCLE('',#400,4.75931564349936);
#264=CIRCLE('',#401,1.524);
#265=CURVE_STYLE('',#274,POSITIVE_LENGTH_MEASURE(0.18),#362);
#266=CURVE_STYLE('',#275,POSITIVE_LENGTH_MEASURE(0.18),#362);
#267=CURVE_STYLE('',#276,POSITIVE_LENGTH_MEASURE(0.18),#362);
#268=CURVE_STYLE('',#277,POSITIVE_LENGTH_MEASURE(0.18),#362);
#269=CURVE_STYLE('',#278,POSITIVE_LENGTH_MEASURE(0.18),#362);
#270=CURVE_STYLE('',#279,POSITIVE_LENGTH_MEASURE(0.18),#244);
#271=CURVE_STYLE('',#280,POSITIVE_LENGTH_MEASURE(0.18),#361);
#272=CURVE_STYLE('',#281,POSITIVE_LENGTH_MEASURE(0.18),#361);
#273=CURVE_STYLE('',#282,POSITIVE_LENGTH_MEASURE(0.18),#361);
#274=DRAUGHTING_PRE_DEFINED_CURVE_FONT('continuous');
#275=DRAUGHTING_PRE_DEFINED_CURVE_FONT('continuous');
#276=DRAUGHTING_PRE_DEFINED_CURVE_FONT('continuous');
#277=DRAUGHTING_PRE_DEFINED_CURVE_FONT('continuous');
#278=DRAUGHTING_PRE_DEFINED_CURVE_FONT('continuous');
#279=DRAUGHTING_PRE_DEFINED_CURVE_FONT('continuous');
#280=DRAUGHTING_PRE_DEFINED_CURVE_FONT('continuous');
#281=DRAUGHTING_PRE_DEFINED_CURVE_FONT('continuous');
#282=DRAUGHTING_PRE_DEFINED_CURVE_FONT('continuous');
#283=TRIMMED_CURVE('',#289,(PARAMETER_VALUE(0.)),(PARAMETER_VALUE(1.)),
 .T.,.PARAMETER.);
#284=TRIMMED_CURVE('',#290,(PARAMETER_VALUE(0.)),(PARAMETER_VALUE(1.)),
 .T.,.PARAMETER.);
#285=TRIMMED_CURVE('',#291,(PARAMETER_VALUE(0.)),(PARAMETER_VALUE(1.)),
 .T.,.PARAMETER.);
#286=TRIMMED_CURVE('',#292,(PARAMETER_VALUE(0.)),(PARAMETER_VALUE(1.)),
 .T.,.PARAMETER.);
#287=TRIMMED_CURVE('',#246,(PARAMETER_VALUE(89.9899999998825)),(
PARAMETER_VALUE(182.5)),.T.,.PARAMETER.);
#288=TRIMMED_CURVE('CUTTING PART LINE',#245,(PARAMETER_VALUE(0.)),(
PARAMETER_VALUE(1.)),.T.,.PARAMETER.);
#289=LINE('',#504,#303);
#290=LINE('',#505,#304);
#291=LINE('',#506,#305);
#292=LINE('',#507,#306);
#293=LINE('',#545,#307);
#294=LINE('',#552,#308);
#295=LINE('',#562,#309);
#296=LINE('',#568,#310);
#297=LINE('',#570,#311);
#298=LINE('',#576,#312);
#299=LINE('',#578,#313);
#300=LINE('',#582,#314);
#301=LINE('',#590,#315);
#302=LINE('',#592,#316);
#303=VECTOR('',#407,4.76384977290048);
#304=VECTOR('',#408,23.8247318984194);
#305=VECTOR('',#409,6.34563336650306);
#306=VECTOR('',#410,25.1397508048263);
#307=VECTOR('',#443,1.);
#308=VECTOR('',#448,1.);
#309=VECTOR('',#461,1.);
#310=VECTOR('',#466,1.);
#311=VECTOR('',#469,1.);
#312=VECTOR('',#476,1.);
#313=VECTOR('',#479,1.);
#314=VECTOR('',#482,1.);
#315=VECTOR('',#493,1.);
#316=VECTOR('',#494,1.);
#317=PRESENTATION_LAYER_ASSIGNMENT('1','Layer 1',(#500,#501,#502,#503,#283,
#284,#285,#286,#287,#288,#367,#368,#369,#58,#59,#60));
#318=PRESENTATION_LAYER_ASSIGNMENT('3','Layer 3',(#61));
#319=STYLED_ITEM('',(#336),#500);
#320=STYLED_ITEM('',(#337),#501);
#321=STYLED_ITEM('',(#338),#502);
#322=STYLED_ITEM('',(#339),#503);
#323=STYLED_ITEM('',(#340),#283);
#324=STYLED_ITEM('',(#341),#284);
#325=STYLED_ITEM('',(#342),#285);
#326=STYLED_ITEM('',(#343),#286);
#327=STYLED_ITEM('',(#344),#287);
#328=STYLED_ITEM('',(#345),#288);
#329=STYLED_ITEM('',(#346),#367);
#330=STYLED_ITEM('',(#347),#368);
#331=STYLED_ITEM('',(#348),#369);
#332=STYLED_ITEM('',(#349),#58);
#333=STYLED_ITEM('',(#350),#59);
#334=STYLED_ITEM('',(#351),#60);
#335=STYLED_ITEM('',(#352),#61);
#336=PRESENTATION_STYLE_ASSIGNMENT((#353));
#337=PRESENTATION_STYLE_ASSIGNMENT((#354));
#338=PRESENTATION_STYLE_ASSIGNMENT((#355));
#339=PRESENTATION_STYLE_ASSIGNMENT((#356));
#340=PRESENTATION_STYLE_ASSIGNMENT((#265));
#341=PRESENTATION_STYLE_ASSIGNMENT((#266));
#342=PRESENTATION_STYLE_ASSIGNMENT((#267));
#343=PRESENTATION_STYLE_ASSIGNMENT((#268));
#344=PRESENTATION_STYLE_ASSIGNMENT((#269));
#345=PRESENTATION_STYLE_ASSIGNMENT((#270));
#346=PRESENTATION_STYLE_ASSIGNMENT((#271));
#347=PRESENTATION_STYLE_ASSIGNMENT((#272));
#348=PRESENTATION_STYLE_ASSIGNMENT((#273));
#349=PRESENTATION_STYLE_ASSIGNMENT((#38));
#350=PRESENTATION_STYLE_ASSIGNMENT((#39));
#351=PRESENTATION_STYLE_ASSIGNMENT((#40));
#352=PRESENTATION_STYLE_ASSIGNMENT((#41));
#353=POINT_STYLE('',#357,POSITIVE_LENGTH_MEASURE(3.),#361);
#354=POINT_STYLE('',#358,POSITIVE_LENGTH_MEASURE(3.),#361);
#355=POINT_STYLE('',#359,POSITIVE_LENGTH_MEASURE(3.),#361);
#356=POINT_STYLE('',#360,POSITIVE_LENGTH_MEASURE(3.),#362);
#357=PRE_DEFINED_POINT_MARKER_SYMBOL('plus');
#358=PRE_DEFINED_POINT_MARKER_SYMBOL('plus');
#359=PRE_DEFINED_POINT_MARKER_SYMBOL('plus');
#360=PRE_DEFINED_POINT_MARKER_SYMBOL('plus');
#361=COLOUR_RGB('Pale Maroon',0.811749446860456,0.603921568627451,0.611749446860456);
#362=COLOUR_RGB('Medium Royal',0.2,0.4,0.8);
#363=COLOUR_RGB('Medium Gray',0.490196078431373,0.490196078431373,0.490196078431373);
#364=COLOUR_RGB('Light Gray',0.8,0.8,0.8);
#365=AXIS2_PLACEMENT_3D('',#499,#405,#406);
#366=AXIS2_PLACEMENT_3D('',#508,#411,#412);
#367=AXIS2_PLACEMENT_3D('PCS',#525,#413,#414);
#368=AXIS2_PLACEMENT_3D('MCS',#526,#415,#416);
#369=AXIS2_PLACEMENT_3D('CIP',#527,#417,#418);
#370=AXIS2_PLACEMENT_3D('',#528,#419,#420);
#371=AXIS2_PLACEMENT_3D('',#530,#421,#422);
#372=AXIS2_PLACEMENT_3D('',#531,#423,#424);
#373=AXIS2_PLACEMENT_3D('',#533,#425,#426);
#374=AXIS2_PLACEMENT_3D('',#534,#427,#428);
#375=AXIS2_PLACEMENT_3D('',#536,#429,#430);
#376=AXIS2_PLACEMENT_3D('',#537,#431,#432);
#377=AXIS2_PLACEMENT_3D('',#538,#433,#434);
#378=AXIS2_PLACEMENT_3D('',#540,#435,#436);
#379=AXIS2_PLACEMENT_3D('',#542,#437,#438);
#380=AXIS2_PLACEMENT_3D('',#543,#439,#440);
#381=AXIS2_PLACEMENT_3D('',#544,#441,#442);
#382=AXIS2_PLACEMENT_3D('',#548,#444,#445);
#383=AXIS2_PLACEMENT_3D('',#550,#446,#447);
#384=AXIS2_PLACEMENT_3D('',#553,#449,#450);
#385=AXIS2_PLACEMENT_3D('',#554,#451,#452);
#386=AXIS2_PLACEMENT_3D('',#556,#453,#454);
#387=AXIS2_PLACEMENT_3D('',#558,#455,#456);
#388=AXIS2_PLACEMENT_3D('',#560,#457,#458);
#389=AXIS2_PLACEMENT_3D('',#561,#459,#460);
#390=AXIS2_PLACEMENT_3D('',#564,#462,#463);
#391=AXIS2_PLACEMENT_3D('',#566,#464,#465);
#392=AXIS2_PLACEMENT_3D('',#569,#467,#468);
#393=AXIS2_PLACEMENT_3D('',#571,#470,#471);
#394=AXIS2_PLACEMENT_3D('',#572,#472,#473);
#395=AXIS2_PLACEMENT_3D('',#573,#474,#475);
#396=AXIS2_PLACEMENT_3D('',#577,#477,#478);
#397=AXIS2_PLACEMENT_3D('',#580,#480,#481);
#398=AXIS2_PLACEMENT_3D('',#583,#483,#484);
#399=AXIS2_PLACEMENT_3D('',#584,#485,#486);
#400=AXIS2_PLACEMENT_3D('',#586,#487,#488);
#401=AXIS2_PLACEMENT_3D('',#588,#489,#490);
#402=AXIS2_PLACEMENT_3D('',#589,#491,#492);
#403=AXIS2_PLACEMENT_3D('',#593,#495,#496);
#404=AXIS2_PLACEMENT_3D('',#594,#497,#498);
#405=DIRECTION('',(0.,0.,1.));
#406=DIRECTION('',(1.,0.,0.));
#407=DIRECTION('',(-0.999048221581858,0.,-0.0436193873653358));
#408=DIRECTION('',(-0.000174532924313814,0.,-0.999999984769129));
#409=DIRECTION('',(1.,0.,0.));
#410=DIRECTION('',(0.,0.,1.));
#411=DIRECTION('',(0.,-1.,0.));
#412=DIRECTION('',(0.,0.,1.));
#413=DIRECTION('',(0.,0.,1.));
#414=DIRECTION('',(1.,0.,0.));
#415=DIRECTION('',(0.,0.,1.));
#416=DIRECTION('',(1.,0.,0.));
#417=DIRECTION('',(0.,0.,1.));
#418=DIRECTION('',(1.,0.,0.));
#419=DIRECTION('',(0.,0.,-1.));
#420=DIRECTION('',(-1.,0.,0.));
#421=DIRECTION('',(0.,0.,1.));
#422=DIRECTION('',(-1.,0.,0.));
#423=DIRECTION('',(0.,0.,-1.));
#424=DIRECTION('',(-1.,0.,0.));
#425=DIRECTION('',(0.,0.,-1.));
#426=DIRECTION('',(1.,0.,-2.06853298670656E-17));
#427=DIRECTION('',(0.,0.,1.));
#428=DIRECTION('',(1.,0.,0.));
#429=DIRECTION('',(0.,0.,-1.));
#430=DIRECTION('',(1.,0.,0.));
#431=DIRECTION('',(0.,0.,1.));
#432=DIRECTION('',(-1.,0.,0.));
#433=DIRECTION('',(0.,0.,-1.));
#434=DIRECTION('',(-1.,0.,0.));
#435=DIRECTION('',(0.,0.,-1.));
#436=DIRECTION('',(1.,0.,0.));
#437=DIRECTION('',(0.,0.,-1.));
#438=DIRECTION('',(1.,0.,0.));
#439=DIRECTION('',(0.,0.,-1.));
#440=DIRECTION('',(1.,0.,0.));
#441=DIRECTION('',(0.,0.,1.));
#442=DIRECTION('',(-1.,0.,0.));
#443=DIRECTION('',(0.,0.999048221581858,0.0436193873653362));
#444=DIRECTION('',(0.,0.,-1.));
#445=DIRECTION('',(-1.,0.,0.));
#446=DIRECTION('',(0.,0.,-1.));
#447=DIRECTION('',(-1.,0.,0.));
#448=DIRECTION('',(0.,0.999048221581858,-0.0436193873653362));
#449=DIRECTION('',(0.,0.,-1.));
#450=DIRECTION('',(1.,0.,-6.05917301173435E-19));
#451=DIRECTION('',(1.,0.,0.));
#452=DIRECTION('',(0.,0.,-1.));
#453=DIRECTION('',(0.,0.,-1.));
#454=DIRECTION('',(1.,0.,0.));
#455=DIRECTION('',(0.,0.,-1.));
#456=DIRECTION('',(1.,0.,0.));
#457=DIRECTION('',(1.,0.,0.));
#458=DIRECTION('',(0.,0.,-1.));
#459=DIRECTION('',(0.,0.,-1.));
#460=DIRECTION('',(-1.,0.,0.));
#461=DIRECTION('',(0.,0.000174532924313768,0.999999984769129));
#462=DIRECTION('',(0.,0.,-1.));
#463=DIRECTION('',(-1.,0.,0.));
#464=DIRECTION('',(0.,0.,-1.));
#465=DIRECTION('',(-1.,0.,0.));
#466=DIRECTION('',(0.,0.000174532924313768,-0.999999984769129));
#467=DIRECTION('',(0.,0.,-1.));
#468=DIRECTION('',(1.,0.,1.06350814498824E-15));
#469=DIRECTION('',(0.,1.,0.));
#470=DIRECTION('',(0.,0.,-1.));
#471=DIRECTION('',(1.,0.,0.));
#472=DIRECTION('',(1.,0.,0.));
#473=DIRECTION('',(0.,0.,-1.));
#474=DIRECTION('',(0.,0.,-1.));
#475=DIRECTION('',(-1.,0.,0.));
#476=DIRECTION('',(0.,-1.,0.));
#477=DIRECTION('',(0.,0.,-1.));
#478=DIRECTION('',(1.,0.,0.));
#479=DIRECTION('',(0.,-0.000174532924313768,-0.999999984769129));
#480=DIRECTION('',(0.,0.,-1.));
#481=DIRECTION('',(1.,0.,0.));
#482=DIRECTION('',(0.,-0.000174532924313768,0.999999984769129));
#483=DIRECTION('',(0.,0.,-1.));
#484=DIRECTION('',(1.,0.,1.06350814498824E-15));
#485=DIRECTION('',(-1.,0.,0.));
#486=DIRECTION('',(0.,0.,-1.));
#487=DIRECTION('',(0.,0.,-1.));
#488=DIRECTION('',(-1.,0.,0.));
#489=DIRECTION('',(-1.,0.,0.));
#490=DIRECTION('',(0.,0.,-1.));
#491=DIRECTION('',(0.,0.,-1.));
#492=DIRECTION('',(-1.,0.,0.));
#493=DIRECTION('',(0.,-0.999048221581858,-0.0436193873653362));
#494=DIRECTION('',(0.,-0.999048221581858,0.0436193873653362));
#495=DIRECTION('',(0.,0.,-1.));
#496=DIRECTION('',(1.,0.,-6.05917301173435E-19));
#497=DIRECTION('',(1.,0.,0.));
#498=DIRECTION('',(0.,0.,-1.));
#499=CARTESIAN_POINT('',(0.,0.,0.));
#500=CARTESIAN_POINT('',(0.,0.,45.237));
#501=CARTESIAN_POINT('',(0.,0.,0.));
#502=CARTESIAN_POINT('',(0.,0.,-30.963));
#503=CARTESIAN_POINT('CRP',(-6.35,0.,-30.96263737242));
#504=CARTESIAN_POINT('',(-8.74073841746429E-16,0.,-30.7027508048263));
#505=CARTESIAN_POINT('',(-6.34563336650306,0.,-5.56300000000221));
#506=CARTESIAN_POINT('',(-6.34563336650306,0.,-5.563));
#507=CARTESIAN_POINT('',(0.,0.,-30.7027508048263));
#508=CARTESIAN_POINT('',(-4.82579158984413,0.,-29.38799752373));
#509=CARTESIAN_POINT('',(-6.34563336650306,0.,-5.56300000000221));
#510=CARTESIAN_POINT('',(-6.3470194332128,0.,-13.5045771785182));
#511=CARTESIAN_POINT('',(-6.34840549992254,0.,-21.4461543570342));
#512=CARTESIAN_POINT('',(-6.34979156663228,0.,-29.3877315355502));
#513=CARTESIAN_POINT('',(-6.34995284601564,0.,-30.3117943250139));
#514=CARTESIAN_POINT('',(-5.68249894400394,0.,-30.9508540667981));
#515=CARTESIAN_POINT('',(-4.75931564349936,0.,-30.9105470134207));
#516=CARTESIAN_POINT('',(-3.17287709566624,0.,-30.8412816105559));
#517=CARTESIAN_POINT('',(-1.58643854783312,0.,-30.7720162076911));
#518=CARTESIAN_POINT('',(-4.44089209850063E-16,0.,-30.7027508048263));
#519=CARTESIAN_POINT('',(0.,0.,-22.3228338698842));
#520=CARTESIAN_POINT('',(0.,0.,-13.9429169349421));
#521=CARTESIAN_POINT('',(0.,0.,-5.563));
#522=CARTESIAN_POINT('',(-2.11521112216769,0.,-5.563));
#523=CARTESIAN_POINT('',(-4.23042224433537,0.,-5.563));
#524=CARTESIAN_POINT('',(-6.34563336650306,0.,-5.563));
#525=CARTESIAN_POINT('',(0.,0.,45.237));
#526=CARTESIAN_POINT('',(0.,0.,0.));
#527=CARTESIAN_POINT('',(0.,0.,-30.963));
#528=CARTESIAN_POINT('',(0.,0.,45.237));
#529=CARTESIAN_POINT('',(-5.74039999999999,0.,45.237));
#530=CARTESIAN_POINT('',(5.74039999999999,0.,45.237));
#531=CARTESIAN_POINT('',(0.,0.,44.6274));
#532=CARTESIAN_POINT('',(-6.35,0.,44.6274));
#533=CARTESIAN_POINT('',(0.,0.,44.6274));
#534=CARTESIAN_POINT('',(0.,0.,0.));
#535=CARTESIAN_POINT('',(6.35,0.,0.));
#536=CARTESIAN_POINT('',(0.,0.,0.));
#537=CARTESIAN_POINT('',(0.,0.,0.));
#538=CARTESIAN_POINT('',(0.,0.,-5.56300000000001));
#539=CARTESIAN_POINT('',(-6.35,0.,-5.56300000000001));
#540=CARTESIAN_POINT('',(0.,0.,0.));
#541=CARTESIAN_POINT('',(6.35,0.,0.));
#542=CARTESIAN_POINT('',(0.,0.,0.));
#543=CARTESIAN_POINT('',(6.34563336650306,0.,-5.56300000000001));
#544=CARTESIAN_POINT('',(0.,0.,0.));
#545=CARTESIAN_POINT('',(0.,0.,-30.7027508048263));
#546=CARTESIAN_POINT('',(0.,-4.75931564349952,-30.9105470134207));
#547=CARTESIAN_POINT('',(-8.75740069425088E-16,0.,-30.7027508048263));
#548=CARTESIAN_POINT('',(0.,0.,-30.9105470134207));
#549=CARTESIAN_POINT('',(-4.75931564349936,0.,-30.9105470134207));
#550=CARTESIAN_POINT('',(0.,0.,-30.9105470134207));
#551=CARTESIAN_POINT('',(0.,4.75931564349952,-30.9105470134207));
#552=CARTESIAN_POINT('',(0.,0.,-30.7027508048263));
#553=CARTESIAN_POINT('',(0.,0.,-30.7027508048263));
#554=CARTESIAN_POINT('',(0.,-4.82579158984413,-29.38799752373));
#555=CARTESIAN_POINT('',(0.,-6.34979156663228,-29.3877315355502));
#556=CARTESIAN_POINT('',(0.,0.,-29.3877315355502));
#557=CARTESIAN_POINT('',(-6.34979156663228,0.,-29.3877315355502));
#558=CARTESIAN_POINT('',(0.,0.,-29.3877315355502));
#559=CARTESIAN_POINT('',(0.,6.34979156663228,-29.3877315355502));
#560=CARTESIAN_POINT('',(0.,4.82579158984413,-29.38799752373));
#561=CARTESIAN_POINT('',(0.,0.,-29.38799752373));
#562=CARTESIAN_POINT('',(0.,0.,36352.237654538));
#563=CARTESIAN_POINT('',(0.,-6.34563336650306,-5.563));
#564=CARTESIAN_POINT('',(0.,0.,-5.56300000000001));
#565=CARTESIAN_POINT('',(-6.34563336650306,0.,-5.56300000000001));
#566=CARTESIAN_POINT('',(0.,0.,-5.56300000000001));
#567=CARTESIAN_POINT('',(0.,6.34563336650306,-5.56300000000001));
#568=CARTESIAN_POINT('',(0.,0.,36352.237654538));
#569=CARTESIAN_POINT('',(0.,0.,-30.5819335029558));
#570=CARTESIAN_POINT('',(0.,0.,-5.563));
#571=CARTESIAN_POINT('',(0.,0.,-5.563));
#572=CARTESIAN_POINT('',(0.,0.,-30.963));
#573=CARTESIAN_POINT('',(0.,0.,-5.56300000000001));
#574=CARTESIAN_POINT('',(0.,6.34563336650306,-5.563));
#575=CARTESIAN_POINT('',(0.,-6.34563336650306,-5.56300000000001));
#576=CARTESIAN_POINT('',(0.,0.,-5.563));
#577=CARTESIAN_POINT('',(0.,0.,-5.563));
#578=CARTESIAN_POINT('',(0.,0.,36352.237654538));
#579=CARTESIAN_POINT('',(0.,-6.34979156663228,-29.3877315355431));
#580=CARTESIAN_POINT('',(0.,0.,-29.3877315355502));
#581=CARTESIAN_POINT('',(0.,6.34979156663228,-29.3877315355431));
#582=CARTESIAN_POINT('',(0.,0.,36352.237654538));
#583=CARTESIAN_POINT('',(0.,0.,-30.5819335029558));
#584=CARTESIAN_POINT('',(0.,-4.82579158984413,-29.38799752373));
#585=CARTESIAN_POINT('',(0.,-4.75931564349952,-30.9105470134207));
#586=CARTESIAN_POINT('',(0.,0.,-30.9105470134207));
#587=CARTESIAN_POINT('',(0.,4.75931564349952,-30.9105470134207));
#588=CARTESIAN_POINT('',(0.,4.82579158984413,-29.38799752373));
#589=CARTESIAN_POINT('',(0.,0.,-29.38799752373));
#590=CARTESIAN_POINT('',(0.,0.,-30.7027508048263));
#591=CARTESIAN_POINT('',(0.,0.,-30.7027508048263));
#592=CARTESIAN_POINT('',(0.,0.,-30.7027508048263));
#593=CARTESIAN_POINT('',(0.,0.,-30.7027508048263));
#594=CARTESIAN_POINT('',(0.,0.,-30.963));
#595=MECHANICAL_DESIGN_GEOMETRIC_PRESENTATION_REPRESENTATION('',(#319,#320,
#321,#322,#323,#324,#325,#326,#327,#328,#329,#330,#331,#332,#333,#334,#335),
#596);
#596=(
GEOMETRIC_REPRESENTATION_CONTEXT(3)
GLOBAL_UNCERTAINTY_ASSIGNED_CONTEXT((#597))
GLOBAL_UNIT_ASSIGNED_CONTEXT((#603,#599,#598))
REPRESENTATION_CONTEXT('STR540.500D2R060','TOP_LEVEL_ASSEMBLY_PART')
);
#597=UNCERTAINTY_MEASURE_WITH_UNIT(LENGTH_MEASURE(2.E-5),#603,
'DISTANCE_ACCURACY_VALUE','Maximum Tolerance applied to model');
#598=(
NAMED_UNIT(*)
SI_UNIT($,.STERADIAN.)
SOLID_ANGLE_UNIT()
);
#599=(
CONVERSION_BASED_UNIT('DEGREE',#601)
NAMED_UNIT(#600)
PLANE_ANGLE_UNIT()
);
#600=DIMENSIONAL_EXPONENTS(0.,0.,0.,0.,0.,0.,0.);
#601=PLANE_ANGLE_MEASURE_WITH_UNIT(PLANE_ANGLE_MEASURE(0.0174532925),#602);
#602=(
NAMED_UNIT(*)
PLANE_ANGLE_UNIT()
SI_UNIT($,.RADIAN.)
);
#603=(
LENGTH_UNIT()
NAMED_UNIT(*)
SI_UNIT(.MILLI.,.METRE.)
);
ENDSEC;
END-ISO-10303-21;
