ISO-10303-21;
HEADER;
/* Generated by software containing ST-Developer
 * from STEP Tools, Inc. (www.steptools.com) 
 */
/* OPTION: using custom schema-name function */

FILE_DESCRIPTION(
/* description */ (''),
/* implementation_level */ '2;1');

FILE_NAME(
/* name */ 'STR440.2.375D2R030.0Z4_Basic.stp',
/* time_stamp */ '2022-03-02T12:52:07+05:00',
/* author */ (''),
/* organization */ (''),
/* preprocessor_version */ 'ST-DEVELOPER v16.7',
/* originating_system */ 'SIEMENS PLM Software NX 12.0',
/* authorisation */ '');

FILE_SCHEMA (('AUTOMOTIVE_DESIGN { 1 0 10303 214 3 1 1 1 }'));
ENDSEC;

DATA;
#10=CONSTRUCTIVE_GEOMETRY_REPRESENTATION_RELATIONSHIP(
'supplemental geometry','',#34,#11);
#11=CONSTRUCTIVE_GEOMETRY_REPRESENTATION('supplemental geometry',(#201,
#202,#203),#322);
#12=GEOMETRICALLY_BOUNDED_WIREFRAME_SHAPE_REPRESENTATION(
'STR440.2.375D2R030.0Z4_Basic-None',(#35),#322);
#13=PROPERTY_DEFINITION_REPRESENTATION(#17,#15);
#14=PROPERTY_DEFINITION_REPRESENTATION(#18,#16);
#15=REPRESENTATION('',(#19),#322);
#16=REPRESENTATION('',(#20),#322);
#17=PROPERTY_DEFINITION('pmi validation property','',#25);
#18=PROPERTY_DEFINITION('pmi validation property','',#25);
#19=VALUE_REPRESENTATION_ITEM('number of annotations',COUNT_MEASURE(0.));
#20=VALUE_REPRESENTATION_ITEM('number of views',COUNT_MEASURE(0.));
#21=SHAPE_REPRESENTATION_RELATIONSHIP('None',
'relationship between STR440.2.375D2R030.0Z4_Basic-None and STR440.2.3
75D2R030.0Z4_Basic-None',#34,#23);
#22=SHAPE_REPRESENTATION_RELATIONSHIP('None',
'relationship between STR440.2.375D2R030.0Z4_Basic-None and STR440.2.3
75D2R030.0Z4_Basic-None',#34,#12);
#23=ADVANCED_BREP_SHAPE_REPRESENTATION(
'STR440.2.375D2R030.0Z4_Basic-None',(#53,#54,#55),#322);
#24=SHAPE_DEFINITION_REPRESENTATION(#25,#34);
#25=PRODUCT_DEFINITION_SHAPE('','',#26);
#26=PRODUCT_DEFINITION(' ','',#28,#27);
#27=PRODUCT_DEFINITION_CONTEXT('part definition',#33,'design');
#28=PRODUCT_DEFINITION_FORMATION_WITH_SPECIFIED_SOURCE(' ',' ',#30,
 .NOT_KNOWN.);
#29=PRODUCT_RELATED_PRODUCT_CATEGORY('part','',(#30));
#30=PRODUCT('inpu0964B760k3y7','inpu0964B760k3y7',' ',(#31));
#31=PRODUCT_CONTEXT(' ',#33,'mechanical');
#32=APPLICATION_PROTOCOL_DEFINITION('international standard',
'automotive_design',2010,#33);
#33=APPLICATION_CONTEXT(
'core data for automotive mechanical design processes');
#34=SHAPE_REPRESENTATION('STR440.2.375D2R030.0Z4_Basic-None',(#200),#322);
#35=GEOMETRIC_CURVE_SET('None',(#270,#271,#272,#273,#163));
#36=TOROIDAL_SURFACE('',#219,4.00043052994805,0.762);
#37=VERTEX_LOOP('',#135);
#38=SURFACE_STYLE_USAGE(.BOTH.,#41);
#39=SURFACE_STYLE_USAGE(.BOTH.,#42);
#40=SURFACE_STYLE_USAGE(.BOTH.,#43);
#41=SURFACE_SIDE_STYLE('',(#44));
#42=SURFACE_SIDE_STYLE('',(#45));
#43=SURFACE_SIDE_STYLE('',(#46));
#44=SURFACE_STYLE_FILL_AREA(#47);
#45=SURFACE_STYLE_FILL_AREA(#48);
#46=SURFACE_STYLE_FILL_AREA(#49);
#47=FILL_AREA_STYLE('',(#50));
#48=FILL_AREA_STYLE('',(#51));
#49=FILL_AREA_STYLE('',(#52));
#50=FILL_AREA_STYLE_COLOUR('',#198);
#51=FILL_AREA_STYLE_COLOUR('',#198);
#52=FILL_AREA_STYLE_COLOUR('',#199);
#53=MANIFOLD_SOLID_BREP('NOCUT',#56);
#54=MANIFOLD_SOLID_BREP('NOCUT',#57);
#55=MANIFOLD_SOLID_BREP('CUT',#58);
#56=CLOSED_SHELL('',(#76,#77,#78,#79));
#57=CLOSED_SHELL('',(#80,#81,#82));
#58=CLOSED_SHELL('',(#83,#84,#85,#86));
#59=CYLINDRICAL_SURFACE('',#209,4.7625);
#60=CYLINDRICAL_SURFACE('',#213,4.7625);
#61=CONICAL_SURFACE('',#207,4.7625,45.);
#62=CONICAL_SURFACE('',#217,1.76391848912521E-15,87.5);
#63=CONICAL_SURFACE('',#221,4.76249999419705,0.0100000000000331);
#64=FACE_BOUND('',#98,.T.);
#65=FACE_BOUND('',#99,.T.);
#66=FACE_BOUND('',#100,.T.);
#67=FACE_BOUND('',#101,.T.);
#68=FACE_BOUND('',#103,.T.);
#69=FACE_BOUND('',#104,.T.);
#70=FACE_BOUND('',#107,.T.);
#71=FACE_BOUND('',#37,.T.);
#72=FACE_BOUND('',#108,.T.);
#73=FACE_BOUND('',#109,.T.);
#74=FACE_BOUND('',#110,.T.);
#75=FACE_BOUND('',#111,.T.);
#76=ADVANCED_FACE('',(#92),#87,.T.);
#77=ADVANCED_FACE('',(#64,#65),#61,.T.);
#78=ADVANCED_FACE('',(#66,#67),#59,.T.);
#79=ADVANCED_FACE('',(#93),#88,.F.);
#80=ADVANCED_FACE('',(#68,#69),#60,.T.);
#81=ADVANCED_FACE('',(#94),#89,.T.);
#82=ADVANCED_FACE('',(#95),#90,.T.);
#83=ADVANCED_FACE('',(#70,#71),#62,.F.);
#84=ADVANCED_FACE('',(#72,#73),#36,.T.);
#85=ADVANCED_FACE('',(#74,#75),#63,.T.);
#86=ADVANCED_FACE('',(#96),#91,.F.);
#87=PLANE('',#205);
#88=PLANE('',#210);
#89=PLANE('',#214);
#90=PLANE('',#215);
#91=PLANE('',#222);
#92=FACE_OUTER_BOUND('',#97,.T.);
#93=FACE_OUTER_BOUND('',#102,.T.);
#94=FACE_OUTER_BOUND('',#105,.T.);
#95=FACE_OUTER_BOUND('',#106,.T.);
#96=FACE_OUTER_BOUND('',#112,.T.);
#97=EDGE_LOOP('',(#113));
#98=EDGE_LOOP('',(#114));
#99=EDGE_LOOP('',(#115));
#100=EDGE_LOOP('',(#116));
#101=EDGE_LOOP('',(#117));
#102=EDGE_LOOP('',(#118));
#103=EDGE_LOOP('',(#119));
#104=EDGE_LOOP('',(#120));
#105=EDGE_LOOP('',(#121));
#106=EDGE_LOOP('',(#122));
#107=EDGE_LOOP('',(#123));
#108=EDGE_LOOP('',(#124));
#109=EDGE_LOOP('',(#125));
#110=EDGE_LOOP('',(#126));
#111=EDGE_LOOP('',(#127));
#112=EDGE_LOOP('',(#128));
#113=ORIENTED_EDGE('',*,*,#138,.F.);
#114=ORIENTED_EDGE('',*,*,#138,.T.);
#115=ORIENTED_EDGE('',*,*,#139,.F.);
#116=ORIENTED_EDGE('',*,*,#140,.T.);
#117=ORIENTED_EDGE('',*,*,#139,.T.);
#118=ORIENTED_EDGE('',*,*,#140,.F.);
#119=ORIENTED_EDGE('',*,*,#141,.F.);
#120=ORIENTED_EDGE('',*,*,#142,.T.);
#121=ORIENTED_EDGE('',*,*,#141,.T.);
#122=ORIENTED_EDGE('',*,*,#142,.F.);
#123=ORIENTED_EDGE('',*,*,#143,.T.);
#124=ORIENTED_EDGE('',*,*,#144,.T.);
#125=ORIENTED_EDGE('',*,*,#143,.F.);
#126=ORIENTED_EDGE('',*,*,#145,.T.);
#127=ORIENTED_EDGE('',*,*,#144,.F.);
#128=ORIENTED_EDGE('',*,*,#145,.F.);
#129=VERTEX_POINT('',#294);
#130=VERTEX_POINT('',#297);
#131=VERTEX_POINT('',#300);
#132=VERTEX_POINT('',#304);
#133=VERTEX_POINT('',#306);
#134=VERTEX_POINT('',#311);
#135=VERTEX_POINT('',#312);
#136=VERTEX_POINT('',#315);
#137=VERTEX_POINT('',#318);
#138=EDGE_CURVE('',#129,#129,#146,.T.);
#139=EDGE_CURVE('',#130,#130,#147,.T.);
#140=EDGE_CURVE('',#131,#131,#148,.T.);
#141=EDGE_CURVE('',#132,#132,#149,.T.);
#142=EDGE_CURVE('',#133,#133,#150,.T.);
#143=EDGE_CURVE('',#134,#134,#151,.T.);
#144=EDGE_CURVE('',#136,#136,#152,.T.);
#145=EDGE_CURVE('',#137,#137,#153,.T.);
#146=CIRCLE('',#204,4.45769999999999);
#147=CIRCLE('',#206,4.7625);
#148=CIRCLE('',#208,4.7625);
#149=CIRCLE('',#211,4.7625);
#150=CIRCLE('',#212,4.7625);
#151=CIRCLE('',#216,3.96719255677566);
#152=CIRCLE('',#218,4.76243051834213);
#153=CIRCLE('',#220,4.75924165058933);
#154=CURVE_STYLE('',#159,POSITIVE_LENGTH_MEASURE(0.18),#158);
#155=CURVE_STYLE('',#160,POSITIVE_LENGTH_MEASURE(0.18),#196);
#156=CURVE_STYLE('',#161,POSITIVE_LENGTH_MEASURE(0.18),#196);
#157=CURVE_STYLE('',#162,POSITIVE_LENGTH_MEASURE(0.18),#196);
#158=DRAUGHTING_PRE_DEFINED_COLOUR('blue');
#159=DRAUGHTING_PRE_DEFINED_CURVE_FONT('continuous');
#160=DRAUGHTING_PRE_DEFINED_CURVE_FONT('continuous');
#161=DRAUGHTING_PRE_DEFINED_CURVE_FONT('continuous');
#162=DRAUGHTING_PRE_DEFINED_CURVE_FONT('continuous');
#163=TRIMMED_CURVE('CUTTING PART LINE',#164,(PARAMETER_VALUE(0.)),(
PARAMETER_VALUE(1.)),.T.,.PARAMETER.);
#164=(
BOUNDED_CURVE()
B_SPLINE_CURVE(3,(#274,#275,#276,#277,#278,#279,#280,#281,#282,#283,#284,
#285,#286,#287,#288,#289),.UNSPECIFIED.,.T.,.F.)
B_SPLINE_CURVE_WITH_KNOTS((4,3,3,3,3,4),(0.,0.387994982059612,0.414121888217965,
0.498448333805825,0.898934082684194,1.),.UNSPECIFIED.)
CURVE()
GEOMETRIC_REPRESENTATION_ITEM()
RATIONAL_B_SPLINE_CURVE((1.,1.,1.,1.,0.794300010002301,0.794300010002301,
1.,1.,1.,1.,1.,1.,1.,1.,1.,1.))
REPRESENTATION_ITEM('CUTTING PART LINE')
);
#165=PRESENTATION_LAYER_ASSIGNMENT('1','Layer 1',(#270,#271,#272,#273,#163,
#201,#202,#203,#53,#54,#55));
#166=STYLED_ITEM('',(#177),#270);
#167=STYLED_ITEM('',(#178),#271);
#168=STYLED_ITEM('',(#179),#272);
#169=STYLED_ITEM('',(#180),#273);
#170=STYLED_ITEM('',(#181),#163);
#171=STYLED_ITEM('',(#182),#201);
#172=STYLED_ITEM('',(#183),#202);
#173=STYLED_ITEM('',(#184),#203);
#174=STYLED_ITEM('',(#185),#53);
#175=STYLED_ITEM('',(#186),#54);
#176=STYLED_ITEM('',(#187),#55);
#177=PRESENTATION_STYLE_ASSIGNMENT((#188));
#178=PRESENTATION_STYLE_ASSIGNMENT((#189));
#179=PRESENTATION_STYLE_ASSIGNMENT((#190));
#180=PRESENTATION_STYLE_ASSIGNMENT((#191));
#181=PRESENTATION_STYLE_ASSIGNMENT((#154));
#182=PRESENTATION_STYLE_ASSIGNMENT((#155));
#183=PRESENTATION_STYLE_ASSIGNMENT((#156));
#184=PRESENTATION_STYLE_ASSIGNMENT((#157));
#185=PRESENTATION_STYLE_ASSIGNMENT((#38));
#186=PRESENTATION_STYLE_ASSIGNMENT((#39));
#187=PRESENTATION_STYLE_ASSIGNMENT((#40));
#188=POINT_STYLE('',#192,POSITIVE_LENGTH_MEASURE(3.),#196);
#189=POINT_STYLE('',#193,POSITIVE_LENGTH_MEASURE(3.),#196);
#190=POINT_STYLE('',#194,POSITIVE_LENGTH_MEASURE(3.),#196);
#191=POINT_STYLE('',#195,POSITIVE_LENGTH_MEASURE(3.),#197);
#192=PRE_DEFINED_POINT_MARKER_SYMBOL('plus');
#193=PRE_DEFINED_POINT_MARKER_SYMBOL('plus');
#194=PRE_DEFINED_POINT_MARKER_SYMBOL('plus');
#195=PRE_DEFINED_POINT_MARKER_SYMBOL('plus');
#196=COLOUR_RGB('Pale Maroon',0.811749446860456,0.603921568627451,0.611749446860456);
#197=COLOUR_RGB('Medium Royal',0.2,0.4,0.8);
#198=COLOUR_RGB('Medium Gray',0.490196078431373,0.490196078431373,0.490196078431373);
#199=COLOUR_RGB('Light Gray',0.8,0.8,0.8);
#200=AXIS2_PLACEMENT_3D('',#269,#223,#224);
#201=AXIS2_PLACEMENT_3D('PCS',#290,#225,#226);
#202=AXIS2_PLACEMENT_3D('MCS',#291,#227,#228);
#203=AXIS2_PLACEMENT_3D('CIP',#292,#229,#230);
#204=AXIS2_PLACEMENT_3D('',#293,#231,#232);
#205=AXIS2_PLACEMENT_3D('',#295,#233,#234);
#206=AXIS2_PLACEMENT_3D('',#296,#235,#236);
#207=AXIS2_PLACEMENT_3D('',#298,#237,#238);
#208=AXIS2_PLACEMENT_3D('',#299,#239,#240);
#209=AXIS2_PLACEMENT_3D('',#301,#241,#242);
#210=AXIS2_PLACEMENT_3D('',#302,#243,#244);
#211=AXIS2_PLACEMENT_3D('',#303,#245,#246);
#212=AXIS2_PLACEMENT_3D('',#305,#247,#248);
#213=AXIS2_PLACEMENT_3D('',#307,#249,#250);
#214=AXIS2_PLACEMENT_3D('',#308,#251,#252);
#215=AXIS2_PLACEMENT_3D('',#309,#253,#254);
#216=AXIS2_PLACEMENT_3D('',#310,#255,#256);
#217=AXIS2_PLACEMENT_3D('',#313,#257,#258);
#218=AXIS2_PLACEMENT_3D('',#314,#259,#260);
#219=AXIS2_PLACEMENT_3D('',#316,#261,#262);
#220=AXIS2_PLACEMENT_3D('',#317,#263,#264);
#221=AXIS2_PLACEMENT_3D('',#319,#265,#266);
#222=AXIS2_PLACEMENT_3D('',#320,#267,#268);
#223=DIRECTION('',(0.,0.,1.));
#224=DIRECTION('',(1.,0.,0.));
#225=DIRECTION('',(0.,0.,1.));
#226=DIRECTION('',(1.,0.,0.));
#227=DIRECTION('',(0.,0.,1.));
#228=DIRECTION('',(1.,0.,0.));
#229=DIRECTION('',(0.,0.,1.));
#230=DIRECTION('',(1.,0.,0.));
#231=DIRECTION('',(0.,0.,-1.));
#232=DIRECTION('',(-1.,0.,0.));
#233=DIRECTION('',(0.,0.,1.));
#234=DIRECTION('',(-1.,0.,0.));
#235=DIRECTION('',(0.,0.,-1.));
#236=DIRECTION('',(-1.,0.,0.));
#237=DIRECTION('',(0.,0.,-1.));
#238=DIRECTION('',(1.,0.,4.14360243574411E-17));
#239=DIRECTION('',(0.,0.,1.));
#240=DIRECTION('',(1.,0.,0.));
#241=DIRECTION('',(0.,0.,-1.));
#242=DIRECTION('',(1.,0.,0.));
#243=DIRECTION('',(0.,0.,1.));
#244=DIRECTION('',(-1.,0.,0.));
#245=DIRECTION('',(0.,0.,-1.));
#246=DIRECTION('',(-1.,0.,0.));
#247=DIRECTION('',(0.,0.,-1.));
#248=DIRECTION('',(1.,0.,0.));
#249=DIRECTION('',(0.,0.,-1.));
#250=DIRECTION('',(1.,0.,0.));
#251=DIRECTION('',(0.,0.,-1.));
#252=DIRECTION('',(1.,0.,0.));
#253=DIRECTION('',(0.,0.,1.));
#254=DIRECTION('',(-1.,0.,0.));
#255=DIRECTION('',(0.,0.,-1.));
#256=DIRECTION('',(-1.,0.,0.));
#257=DIRECTION('',(0.,0.,-1.));
#258=DIRECTION('',(1.,0.,-1.21183460234687E-18));
#259=DIRECTION('',(0.,0.,-1.));
#260=DIRECTION('',(1.,0.,0.));
#261=DIRECTION('',(0.,0.,-1.));
#262=DIRECTION('',(-1.,0.,0.));
#263=DIRECTION('',(0.,0.,-1.));
#264=DIRECTION('',(-1.,0.,0.));
#265=DIRECTION('',(0.,0.,-1.));
#266=DIRECTION('',(1.,0.,1.40547855659505E-15));
#267=DIRECTION('',(0.,0.,-1.));
#268=DIRECTION('',(1.,0.,0.));
#269=CARTESIAN_POINT('',(0.,0.,0.));
#270=CARTESIAN_POINT('',(0.,0.,40.));
#271=CARTESIAN_POINT('',(0.,0.,0.));
#272=CARTESIAN_POINT('',(0.,0.,-23.5));
#273=CARTESIAN_POINT('CRP',(-4.7625,0.,-23.49963737242));
#274=CARTESIAN_POINT('',(-4.75924165058933,0.,-4.45000000000206));
#275=CARTESIAN_POINT('',(-4.76030460650693,0.,-10.5402887268333));
#276=CARTESIAN_POINT('',(-4.76136756242453,0.,-16.6305774536646));
#277=CARTESIAN_POINT('',(-4.76243051834213,0.,-22.7208661804941));
#278=CARTESIAN_POINT('',(-4.7625111580338,0.,-23.1828975752216));
#279=CARTESIAN_POINT('',(-4.42878420702535,0.,-23.5024274461107));
#280=CARTESIAN_POINT('',(-3.96719255677566,0.,-23.4822739194221));
#281=CARTESIAN_POINT('',(-2.64479503785044,0.,-23.4245367968459));
#282=CARTESIAN_POINT('',(-1.32239751892522,0.,-23.3667996742698));
#283=CARTESIAN_POINT('',(-8.88178419700125E-16,0.,-23.3090625516936));
#284=CARTESIAN_POINT('',(0.,0.,-17.0227083677957));
#285=CARTESIAN_POINT('',(0.,0.,-10.7363541838979));
#286=CARTESIAN_POINT('',(0.,0.,-4.45));
#287=CARTESIAN_POINT('',(-1.58641388352978,0.,-4.45));
#288=CARTESIAN_POINT('',(-3.17282776705955,0.,-4.45));
#289=CARTESIAN_POINT('',(-4.75924165058933,0.,-4.45));
#290=CARTESIAN_POINT('',(0.,0.,40.));
#291=CARTESIAN_POINT('',(0.,0.,0.));
#292=CARTESIAN_POINT('',(0.,0.,-23.5));
#293=CARTESIAN_POINT('',(0.,0.,40.));
#294=CARTESIAN_POINT('',(-4.45769999999999,0.,40.));
#295=CARTESIAN_POINT('',(4.45769999999999,0.,40.));
#296=CARTESIAN_POINT('',(0.,0.,39.6952));
#297=CARTESIAN_POINT('',(-4.7625,0.,39.6952));
#298=CARTESIAN_POINT('',(0.,0.,39.6952));
#299=CARTESIAN_POINT('',(0.,0.,0.));
#300=CARTESIAN_POINT('',(4.7625,0.,0.));
#301=CARTESIAN_POINT('',(0.,0.,0.));
#302=CARTESIAN_POINT('',(0.,0.,0.));
#303=CARTESIAN_POINT('',(0.,0.,-4.45));
#304=CARTESIAN_POINT('',(-4.7625,0.,-4.45));
#305=CARTESIAN_POINT('',(0.,0.,0.));
#306=CARTESIAN_POINT('',(4.7625,0.,0.));
#307=CARTESIAN_POINT('',(0.,0.,0.));
#308=CARTESIAN_POINT('',(4.75924165058933,0.,-4.45));
#309=CARTESIAN_POINT('',(0.,0.,0.));
#310=CARTESIAN_POINT('',(0.,0.,-23.4822739194221));
#311=CARTESIAN_POINT('',(-3.96719255677566,0.,-23.4822739194221));
#312=CARTESIAN_POINT('',(-1.76391848912521E-15,0.,-23.3090625516936));
#313=CARTESIAN_POINT('',(0.,0.,-23.3090625516936));
#314=CARTESIAN_POINT('',(0.,0.,-22.7208661804923));
#315=CARTESIAN_POINT('',(-4.76243051834213,0.,-22.7208661804923));
#316=CARTESIAN_POINT('',(0.,0.,-22.7209991745767));
#317=CARTESIAN_POINT('',(0.,0.,-4.45));
#318=CARTESIAN_POINT('',(-4.75924165058933,0.,-4.45));
#319=CARTESIAN_POINT('',(0.,0.,-23.1189335029558));
#320=CARTESIAN_POINT('',(0.,0.,-4.45));
#321=MECHANICAL_DESIGN_GEOMETRIC_PRESENTATION_REPRESENTATION('',(#166,#167,
#168,#169,#170,#171,#172,#173,#174,#175,#176),#322);
#322=(
GEOMETRIC_REPRESENTATION_CONTEXT(3)
GLOBAL_UNCERTAINTY_ASSIGNED_CONTEXT((#323))
GLOBAL_UNIT_ASSIGNED_CONTEXT((#329,#325,#324))
REPRESENTATION_CONTEXT('STR440.2.375D2R030','TOP_LEVEL_ASSEMBLY_PART')
);
#323=UNCERTAINTY_MEASURE_WITH_UNIT(LENGTH_MEASURE(2.E-5),#329,
'DISTANCE_ACCURACY_VALUE','Maximum Tolerance applied to model');
#324=(
NAMED_UNIT(*)
SI_UNIT($,.STERADIAN.)
SOLID_ANGLE_UNIT()
);
#325=(
CONVERSION_BASED_UNIT('DEGREE',#327)
NAMED_UNIT(#326)
PLANE_ANGLE_UNIT()
);
#326=DIMENSIONAL_EXPONENTS(0.,0.,0.,0.,0.,0.,0.);
#327=PLANE_ANGLE_MEASURE_WITH_UNIT(PLANE_ANGLE_MEASURE(0.0174532925),#328);
#328=(
NAMED_UNIT(*)
PLANE_ANGLE_UNIT()
SI_UNIT($,.RADIAN.)
);
#329=(
LENGTH_UNIT()
NAMED_UNIT(*)
SI_UNIT(.MILLI.,.METRE.)
);
ENDSEC;
END-ISO-10303-21;
