ISO-10303-21;
HEADER;
/* Generated by software containing ST-Developer
 * from STEP Tools, Inc. (www.steptools.com) 
 */
/* OPTION: using custom schema-name function */

FILE_DESCRIPTION(
/* description */ (''),
/* implementation_level */ '2;1');

FILE_NAME(
/* name */ 'STR440.2.250D3R030.0Z4_Basic.stp',
/* time_stamp */ '2022-03-02T12:52:08+05:00',
/* author */ (''),
/* organization */ (''),
/* preprocessor_version */ 'ST-DEVELOPER v16.7',
/* originating_system */ 'SIEMENS PLM Software NX 12.0',
/* authorisation */ '');

FILE_SCHEMA (('AUTOMOTIVE_DESIGN { 1 0 10303 214 3 1 1 1 }'));
ENDSEC;

DATA;
#10=CONSTRUCTIVE_GEOMETRY_REPRESENTATION_RELATIONSHIP(
'supplemental geometry','',#34,#11);
#11=CONSTRUCTIVE_GEOMETRY_REPRESENTATION('supplemental geometry',(#367,
#368,#369),#596);
#12=GEOMETRICALLY_BOUNDED_WIREFRAME_SHAPE_REPRESENTATION(
'STR440.2.250D3R030.0Z4_Basic-None',(#35),#596);
#13=PROPERTY_DEFINITION_REPRESENTATION(#17,#15);
#14=PROPERTY_DEFINITION_REPRESENTATION(#18,#16);
#15=REPRESENTATION('',(#19),#596);
#16=REPRESENTATION('',(#20),#596);
#17=PROPERTY_DEFINITION('pmi validation property','',#25);
#18=PROPERTY_DEFINITION('pmi validation property','',#25);
#19=VALUE_REPRESENTATION_ITEM('number of annotations',COUNT_MEASURE(0.));
#20=VALUE_REPRESENTATION_ITEM('number of views',COUNT_MEASURE(0.));
#21=SHAPE_REPRESENTATION_RELATIONSHIP('None',
'relationship between STR440.2.250D3R030.0Z4_Basic-None and STR440.2.2
50D3R030.0Z4_Basic-None',#34,#23);
#22=SHAPE_REPRESENTATION_RELATIONSHIP('None',
'relationship between STR440.2.250D3R030.0Z4_Basic-None and STR440.2.2
50D3R030.0Z4_Basic-None',#34,#12);
#23=ADVANCED_BREP_SHAPE_REPRESENTATION(
'STR440.2.250D3R030.0Z4_Basic-None',(#58,#59,#60,#61),#596);
#24=SHAPE_DEFINITION_REPRESENTATION(#25,#34);
#25=PRODUCT_DEFINITION_SHAPE('','',#26);
#26=PRODUCT_DEFINITION(' ','',#28,#27);
#27=PRODUCT_DEFINITION_CONTEXT('part definition',#33,'design');
#28=PRODUCT_DEFINITION_FORMATION_WITH_SPECIFIED_SOURCE(' ',' ',#30,
 .NOT_KNOWN.);
#29=PRODUCT_RELATED_PRODUCT_CATEGORY('part','',(#30));
#30=PRODUCT('inpu0964B760k3ha','inpu0964B760k3ha',' ',(#31));
#31=PRODUCT_CONTEXT(' ',#33,'mechanical');
#32=APPLICATION_PROTOCOL_DEFINITION('international standard',
'automotive_design',2010,#33);
#33=APPLICATION_CONTEXT(
'core data for automotive mechanical design processes');
#34=SHAPE_REPRESENTATION('STR440.2.250D3R030.0Z4_Basic-None',(#365),#596);
#35=GEOMETRIC_CURVE_SET('None',(#500,#501,#502,#503,#283,#284,#285,#286,
#287,#288));
#36=TOROIDAL_SURFACE('',#389,2.41293052994804,0.762);
#37=TOROIDAL_SURFACE('',#399,2.41293052994804,0.762);
#38=SURFACE_STYLE_USAGE(.BOTH.,#42);
#39=SURFACE_STYLE_USAGE(.BOTH.,#43);
#40=SURFACE_STYLE_USAGE(.BOTH.,#44);
#41=SURFACE_STYLE_USAGE(.BOTH.,#45);
#42=SURFACE_SIDE_STYLE('',(#46));
#43=SURFACE_SIDE_STYLE('',(#47));
#44=SURFACE_SIDE_STYLE('',(#48));
#45=SURFACE_SIDE_STYLE('',(#49));
#46=SURFACE_STYLE_FILL_AREA(#50);
#47=SURFACE_STYLE_FILL_AREA(#51);
#48=SURFACE_STYLE_FILL_AREA(#52);
#49=SURFACE_STYLE_FILL_AREA(#53);
#50=FILL_AREA_STYLE('',(#54));
#51=FILL_AREA_STYLE('',(#55));
#52=FILL_AREA_STYLE('',(#56));
#53=FILL_AREA_STYLE('',(#57));
#54=FILL_AREA_STYLE_COLOUR('',#363);
#55=FILL_AREA_STYLE_COLOUR('',#363);
#56=FILL_AREA_STYLE_COLOUR('',#364);
#57=FILL_AREA_STYLE_COLOUR('',#364);
#58=MANIFOLD_SOLID_BREP('NOCUT',#62);
#59=MANIFOLD_SOLID_BREP('NOCUT',#63);
#60=MANIFOLD_SOLID_BREP('CUT',#64);
#61=MANIFOLD_SOLID_BREP('CUT',#65);
#62=CLOSED_SHELL('',(#79,#80,#81,#82));
#63=CLOSED_SHELL('',(#83,#84,#85));
#64=CLOSED_SHELL('',(#86,#87,#88,#89,#90));
#65=CLOSED_SHELL('',(#91,#92,#93,#94,#95));
#66=CYLINDRICAL_SURFACE('',#375,3.175);
#67=CYLINDRICAL_SURFACE('',#379,3.175);
#68=CONICAL_SURFACE('',#373,3.175,45.);
#69=CONICAL_SURFACE('',#385,3.17499999419704,0.0100000000000078);
#70=CONICAL_SURFACE('',#390,1.6528961866627E-15,87.5);
#71=CONICAL_SURFACE('',#394,1.6528961866627E-15,87.5);
#72=CONICAL_SURFACE('',#402,3.17499999419704,0.0100000000000078);
#73=FACE_BOUND('',#119,.T.);
#74=FACE_BOUND('',#120,.T.);
#75=FACE_BOUND('',#121,.T.);
#76=FACE_BOUND('',#122,.T.);
#77=FACE_BOUND('',#124,.T.);
#78=FACE_BOUND('',#125,.T.);
#79=ADVANCED_FACE('',(#104),#96,.T.);
#80=ADVANCED_FACE('',(#73,#74),#68,.T.);
#81=ADVANCED_FACE('',(#75,#76),#66,.T.);
#82=ADVANCED_FACE('',(#105),#97,.F.);
#83=ADVANCED_FACE('',(#77,#78),#67,.T.);
#84=ADVANCED_FACE('',(#106),#98,.T.);
#85=ADVANCED_FACE('',(#107),#99,.T.);
#86=ADVANCED_FACE('',(#108),#100,.F.);
#87=ADVANCED_FACE('',(#109),#69,.T.);
#88=ADVANCED_FACE('',(#110),#36,.T.);
#89=ADVANCED_FACE('',(#111),#70,.F.);
#90=ADVANCED_FACE('',(#112),#101,.F.);
#91=ADVANCED_FACE('',(#113),#71,.F.);
#92=ADVANCED_FACE('',(#114),#37,.T.);
#93=ADVANCED_FACE('',(#115),#72,.T.);
#94=ADVANCED_FACE('',(#116),#102,.F.);
#95=ADVANCED_FACE('',(#117),#103,.T.);
#96=PLANE('',#371);
#97=PLANE('',#376);
#98=PLANE('',#380);
#99=PLANE('',#381);
#100=PLANE('',#383);
#101=PLANE('',#391);
#102=PLANE('',#403);
#103=PLANE('',#404);
#104=FACE_OUTER_BOUND('',#118,.T.);
#105=FACE_OUTER_BOUND('',#123,.T.);
#106=FACE_OUTER_BOUND('',#126,.T.);
#107=FACE_OUTER_BOUND('',#127,.T.);
#108=FACE_OUTER_BOUND('',#128,.T.);
#109=FACE_OUTER_BOUND('',#129,.T.);
#110=FACE_OUTER_BOUND('',#130,.T.);
#111=FACE_OUTER_BOUND('',#131,.T.);
#112=FACE_OUTER_BOUND('',#132,.T.);
#113=FACE_OUTER_BOUND('',#133,.T.);
#114=FACE_OUTER_BOUND('',#134,.T.);
#115=FACE_OUTER_BOUND('',#135,.T.);
#116=FACE_OUTER_BOUND('',#136,.T.);
#117=FACE_OUTER_BOUND('',#137,.T.);
#118=EDGE_LOOP('',(#138));
#119=EDGE_LOOP('',(#139));
#120=EDGE_LOOP('',(#140));
#121=EDGE_LOOP('',(#141));
#122=EDGE_LOOP('',(#142));
#123=EDGE_LOOP('',(#143));
#124=EDGE_LOOP('',(#144));
#125=EDGE_LOOP('',(#145));
#126=EDGE_LOOP('',(#146));
#127=EDGE_LOOP('',(#147));
#128=EDGE_LOOP('',(#148,#149));
#129=EDGE_LOOP('',(#150,#151,#152,#153));
#130=EDGE_LOOP('',(#154,#155,#156,#157));
#131=EDGE_LOOP('',(#158,#159,#160));
#132=EDGE_LOOP('',(#161,#162,#163,#164,#165,#166,#167));
#133=EDGE_LOOP('',(#168,#169,#170,#171));
#134=EDGE_LOOP('',(#172,#173,#174,#175,#176,#177));
#135=EDGE_LOOP('',(#178,#179,#180,#181,#182,#183));
#136=EDGE_LOOP('',(#184,#185,#186));
#137=EDGE_LOOP('',(#187,#188,#189,#190,#191,#192,#193));
#138=ORIENTED_EDGE('',*,*,#216,.F.);
#139=ORIENTED_EDGE('',*,*,#216,.T.);
#140=ORIENTED_EDGE('',*,*,#217,.F.);
#141=ORIENTED_EDGE('',*,*,#218,.T.);
#142=ORIENTED_EDGE('',*,*,#217,.T.);
#143=ORIENTED_EDGE('',*,*,#218,.F.);
#144=ORIENTED_EDGE('',*,*,#219,.F.);
#145=ORIENTED_EDGE('',*,*,#220,.T.);
#146=ORIENTED_EDGE('',*,*,#219,.T.);
#147=ORIENTED_EDGE('',*,*,#220,.F.);
#148=ORIENTED_EDGE('',*,*,#221,.F.);
#149=ORIENTED_EDGE('',*,*,#222,.T.);
#150=ORIENTED_EDGE('',*,*,#223,.T.);
#151=ORIENTED_EDGE('',*,*,#224,.F.);
#152=ORIENTED_EDGE('',*,*,#225,.T.);
#153=ORIENTED_EDGE('',*,*,#221,.T.);
#154=ORIENTED_EDGE('',*,*,#226,.T.);
#155=ORIENTED_EDGE('',*,*,#227,.F.);
#156=ORIENTED_EDGE('',*,*,#228,.T.);
#157=ORIENTED_EDGE('',*,*,#224,.T.);
#158=ORIENTED_EDGE('',*,*,#227,.T.);
#159=ORIENTED_EDGE('',*,*,#229,.F.);
#160=ORIENTED_EDGE('',*,*,#230,.F.);
#161=ORIENTED_EDGE('',*,*,#226,.F.);
#162=ORIENTED_EDGE('',*,*,#223,.F.);
#163=ORIENTED_EDGE('',*,*,#222,.F.);
#164=ORIENTED_EDGE('',*,*,#225,.F.);
#165=ORIENTED_EDGE('',*,*,#228,.F.);
#166=ORIENTED_EDGE('',*,*,#230,.T.);
#167=ORIENTED_EDGE('',*,*,#229,.T.);
#168=ORIENTED_EDGE('',*,*,#231,.F.);
#169=ORIENTED_EDGE('',*,*,#232,.T.);
#170=ORIENTED_EDGE('',*,*,#233,.T.);
#171=ORIENTED_EDGE('',*,*,#234,.F.);
#172=ORIENTED_EDGE('',*,*,#232,.F.);
#173=ORIENTED_EDGE('',*,*,#235,.T.);
#174=ORIENTED_EDGE('',*,*,#236,.T.);
#175=ORIENTED_EDGE('',*,*,#237,.T.);
#176=ORIENTED_EDGE('',*,*,#238,.T.);
#177=ORIENTED_EDGE('',*,*,#233,.F.);
#178=ORIENTED_EDGE('',*,*,#236,.F.);
#179=ORIENTED_EDGE('',*,*,#239,.T.);
#180=ORIENTED_EDGE('',*,*,#240,.T.);
#181=ORIENTED_EDGE('',*,*,#241,.T.);
#182=ORIENTED_EDGE('',*,*,#242,.T.);
#183=ORIENTED_EDGE('',*,*,#237,.F.);
#184=ORIENTED_EDGE('',*,*,#243,.T.);
#185=ORIENTED_EDGE('',*,*,#241,.F.);
#186=ORIENTED_EDGE('',*,*,#240,.F.);
#187=ORIENTED_EDGE('',*,*,#235,.F.);
#188=ORIENTED_EDGE('',*,*,#231,.T.);
#189=ORIENTED_EDGE('',*,*,#234,.T.);
#190=ORIENTED_EDGE('',*,*,#238,.F.);
#191=ORIENTED_EDGE('',*,*,#242,.F.);
#192=ORIENTED_EDGE('',*,*,#243,.F.);
#193=ORIENTED_EDGE('',*,*,#239,.F.);
#194=VERTEX_POINT('',#529);
#195=VERTEX_POINT('',#532);
#196=VERTEX_POINT('',#535);
#197=VERTEX_POINT('',#539);
#198=VERTEX_POINT('',#541);
#199=VERTEX_POINT('',#546);
#200=VERTEX_POINT('',#547);
#201=VERTEX_POINT('',#551);
#202=VERTEX_POINT('',#553);
#203=VERTEX_POINT('',#557);
#204=VERTEX_POINT('',#559);
#205=VERTEX_POINT('',#563);
#206=VERTEX_POINT('',#568);
#207=VERTEX_POINT('',#569);
#208=VERTEX_POINT('',#571);
#209=VERTEX_POINT('',#573);
#210=VERTEX_POINT('',#577);
#211=VERTEX_POINT('',#579);
#212=VERTEX_POINT('',#581);
#213=VERTEX_POINT('',#585);
#214=VERTEX_POINT('',#587);
#215=VERTEX_POINT('',#589);
#216=EDGE_CURVE('',#194,#194,#247,.T.);
#217=EDGE_CURVE('',#195,#195,#248,.T.);
#218=EDGE_CURVE('',#196,#196,#249,.T.);
#219=EDGE_CURVE('',#197,#197,#250,.T.);
#220=EDGE_CURVE('',#198,#198,#251,.T.);
#221=EDGE_CURVE('',#199,#200,#252,.T.);
#222=EDGE_CURVE('',#199,#200,#293,.T.);
#223=EDGE_CURVE('',#200,#201,#294,.T.);
#224=EDGE_CURVE('',#202,#201,#253,.T.);
#225=EDGE_CURVE('',#202,#199,#295,.T.);
#226=EDGE_CURVE('',#201,#203,#254,.T.);
#227=EDGE_CURVE('',#204,#203,#255,.T.);
#228=EDGE_CURVE('',#204,#202,#256,.T.);
#229=EDGE_CURVE('',#205,#203,#296,.T.);
#230=EDGE_CURVE('',#204,#205,#297,.T.);
#231=EDGE_CURVE('',#206,#207,#298,.T.);
#232=EDGE_CURVE('',#206,#208,#257,.T.);
#233=EDGE_CURVE('',#208,#209,#258,.T.);
#234=EDGE_CURVE('',#207,#209,#299,.T.);
#235=EDGE_CURVE('',#206,#210,#259,.T.);
#236=EDGE_CURVE('',#210,#211,#260,.T.);
#237=EDGE_CURVE('',#211,#212,#261,.T.);
#238=EDGE_CURVE('',#212,#209,#262,.T.);
#239=EDGE_CURVE('',#210,#213,#300,.T.);
#240=EDGE_CURVE('',#213,#214,#263,.T.);
#241=EDGE_CURVE('',#214,#215,#264,.T.);
#242=EDGE_CURVE('',#215,#212,#301,.T.);
#243=EDGE_CURVE('',#213,#215,#302,.T.);
#244=DRAUGHTING_PRE_DEFINED_COLOUR('blue');
#245=(
BOUNDED_CURVE()
B_SPLINE_CURVE(3,(#509,#510,#511,#512,#513,#514,#515,#516,#517,#518,#519,
#520,#521,#522,#523,#524),.UNSPECIFIED.,.T.,.F.)
B_SPLINE_CURVE_WITH_KNOTS((4,3,3,3,3,4),(0.,0.415404909663466,0.443377552595299,
0.49753359042395,0.927887543988127,1.),.UNSPECIFIED.)
CURVE()
GEOMETRIC_REPRESENTATION_ITEM()
RATIONAL_B_SPLINE_CURVE((1.,1.,1.,1.,0.794300010001198,0.794300010001198,
1.,1.,1.,1.,1.,1.,1.,1.,1.,1.))
REPRESENTATION_ITEM('CUTTING PART LINE')
);
#246=CIRCLE('',#366,0.762);
#247=CIRCLE('',#370,2.8702);
#248=CIRCLE('',#372,3.175);
#249=CIRCLE('',#374,3.175);
#250=CIRCLE('',#377,3.175);
#251=CIRCLE('',#378,3.175);
#252=CIRCLE('',#382,3.17174165058933);
#253=CIRCLE('',#384,3.17493051834212);
#254=CIRCLE('',#386,0.762);
#255=CIRCLE('',#387,2.37969255677566);
#256=CIRCLE('',#388,0.762);
#257=CIRCLE('',#392,2.37969255677566);
#258=CIRCLE('',#393,2.37969255677566);
#259=CIRCLE('',#395,0.762);
#260=CIRCLE('',#396,3.17493051834212);
#261=CIRCLE('',#397,3.17493051834212);
#262=CIRCLE('',#398,0.762);
#263=CIRCLE('',#400,3.17174165058933);
#264=CIRCLE('',#401,3.17174165058933);
#265=CURVE_STYLE('',#274,POSITIVE_LENGTH_MEASURE(0.18),#362);
#266=CURVE_STYLE('',#275,POSITIVE_LENGTH_MEASURE(0.18),#362);
#267=CURVE_STYLE('',#276,POSITIVE_LENGTH_MEASURE(0.18),#362);
#268=CURVE_STYLE('',#277,POSITIVE_LENGTH_MEASURE(0.18),#362);
#269=CURVE_STYLE('',#278,POSITIVE_LENGTH_MEASURE(0.18),#362);
#270=CURVE_STYLE('',#279,POSITIVE_LENGTH_MEASURE(0.18),#244);
#271=CURVE_STYLE('',#280,POSITIVE_LENGTH_MEASURE(0.18),#361);
#272=CURVE_STYLE('',#281,POSITIVE_LENGTH_MEASURE(0.18),#361);
#273=CURVE_STYLE('',#282,POSITIVE_LENGTH_MEASURE(0.18),#361);
#274=DRAUGHTING_PRE_DEFINED_CURVE_FONT('continuous');
#275=DRAUGHTING_PRE_DEFINED_CURVE_FONT('continuous');
#276=DRAUGHTING_PRE_DEFINED_CURVE_FONT('continuous');
#277=DRAUGHTING_PRE_DEFINED_CURVE_FONT('continuous');
#278=DRAUGHTING_PRE_DEFINED_CURVE_FONT('continuous');
#279=DRAUGHTING_PRE_DEFINED_CURVE_FONT('continuous');
#280=DRAUGHTING_PRE_DEFINED_CURVE_FONT('continuous');
#281=DRAUGHTING_PRE_DEFINED_CURVE_FONT('continuous');
#282=DRAUGHTING_PRE_DEFINED_CURVE_FONT('continuous');
#283=TRIMMED_CURVE('',#289,(PARAMETER_VALUE(0.)),(PARAMETER_VALUE(1.)),
 .T.,.PARAMETER.);
#284=TRIMMED_CURVE('',#290,(PARAMETER_VALUE(0.)),(PARAMETER_VALUE(1.)),
 .T.,.PARAMETER.);
#285=TRIMMED_CURVE('',#291,(PARAMETER_VALUE(0.)),(PARAMETER_VALUE(1.)),
 .T.,.PARAMETER.);
#286=TRIMMED_CURVE('',#292,(PARAMETER_VALUE(0.)),(PARAMETER_VALUE(1.)),
 .T.,.PARAMETER.);
#287=TRIMMED_CURVE('',#246,(PARAMETER_VALUE(89.9900000000337)),(
PARAMETER_VALUE(182.5)),.T.,.PARAMETER.);
#288=TRIMMED_CURVE('CUTTING PART LINE',#245,(PARAMETER_VALUE(0.)),(
PARAMETER_VALUE(1.)),.T.,.PARAMETER.);
#289=LINE('',#504,#303);
#290=LINE('',#505,#304);
#291=LINE('',#506,#305);
#292=LINE('',#507,#306);
#293=LINE('',#548,#307);
#294=LINE('',#550,#308);
#295=LINE('',#554,#309);
#296=LINE('',#562,#310);
#297=LINE('',#564,#311);
#298=LINE('',#567,#312);
#299=LINE('',#574,#313);
#300=LINE('',#584,#314);
#301=LINE('',#590,#315);
#302=LINE('',#592,#316);
#303=VECTOR('',#407,2.38195965456776);
#304=VECTOR('',#408,18.2708664587679);
#305=VECTOR('',#409,3.17174165058933);
#306=VECTOR('',#410,18.9283742985608);
#307=VECTOR('',#445,1.);
#308=VECTOR('',#448,1.);
#309=VECTOR('',#451,1.);
#310=VECTOR('',#462,1.);
#311=VECTOR('',#463,1.);
#312=VECTOR('',#468,1.);
#313=VECTOR('',#473,1.);
#314=VECTOR('',#486,1.);
#315=VECTOR('',#491,1.);
#316=VECTOR('',#494,1.);
#317=PRESENTATION_LAYER_ASSIGNMENT('1','Layer 1',(#500,#501,#502,#503,#283,
#284,#285,#286,#287,#288,#367,#368,#369,#58,#59,#60));
#318=PRESENTATION_LAYER_ASSIGNMENT('3','Layer 3',(#61));
#319=STYLED_ITEM('',(#336),#500);
#320=STYLED_ITEM('',(#337),#501);
#321=STYLED_ITEM('',(#338),#502);
#322=STYLED_ITEM('',(#339),#503);
#323=STYLED_ITEM('',(#340),#283);
#324=STYLED_ITEM('',(#341),#284);
#325=STYLED_ITEM('',(#342),#285);
#326=STYLED_ITEM('',(#343),#286);
#327=STYLED_ITEM('',(#344),#287);
#328=STYLED_ITEM('',(#345),#288);
#329=STYLED_ITEM('',(#346),#367);
#330=STYLED_ITEM('',(#347),#368);
#331=STYLED_ITEM('',(#348),#369);
#332=STYLED_ITEM('',(#349),#58);
#333=STYLED_ITEM('',(#350),#59);
#334=STYLED_ITEM('',(#351),#60);
#335=STYLED_ITEM('',(#352),#61);
#336=PRESENTATION_STYLE_ASSIGNMENT((#353));
#337=PRESENTATION_STYLE_ASSIGNMENT((#354));
#338=PRESENTATION_STYLE_ASSIGNMENT((#355));
#339=PRESENTATION_STYLE_ASSIGNMENT((#356));
#340=PRESENTATION_STYLE_ASSIGNMENT((#265));
#341=PRESENTATION_STYLE_ASSIGNMENT((#266));
#342=PRESENTATION_STYLE_ASSIGNMENT((#267));
#343=PRESENTATION_STYLE_ASSIGNMENT((#268));
#344=PRESENTATION_STYLE_ASSIGNMENT((#269));
#345=PRESENTATION_STYLE_ASSIGNMENT((#270));
#346=PRESENTATION_STYLE_ASSIGNMENT((#271));
#347=PRESENTATION_STYLE_ASSIGNMENT((#272));
#348=PRESENTATION_STYLE_ASSIGNMENT((#273));
#349=PRESENTATION_STYLE_ASSIGNMENT((#38));
#350=PRESENTATION_STYLE_ASSIGNMENT((#39));
#351=PRESENTATION_STYLE_ASSIGNMENT((#40));
#352=PRESENTATION_STYLE_ASSIGNMENT((#41));
#353=POINT_STYLE('',#357,POSITIVE_LENGTH_MEASURE(3.),#361);
#354=POINT_STYLE('',#358,POSITIVE_LENGTH_MEASURE(3.),#361);
#355=POINT_STYLE('',#359,POSITIVE_LENGTH_MEASURE(3.),#361);
#356=POINT_STYLE('',#360,POSITIVE_LENGTH_MEASURE(3.),#362);
#357=PRE_DEFINED_POINT_MARKER_SYMBOL('plus');
#358=PRE_DEFINED_POINT_MARKER_SYMBOL('plus');
#359=PRE_DEFINED_POINT_MARKER_SYMBOL('plus');
#360=PRE_DEFINED_POINT_MARKER_SYMBOL('plus');
#361=COLOUR_RGB('Pale Maroon',0.811749446860456,0.603921568627451,0.611749446860456);
#362=COLOUR_RGB('Medium Royal',0.2,0.4,0.8);
#363=COLOUR_RGB('Medium Gray',0.490196078431373,0.490196078431373,0.490196078431373);
#364=COLOUR_RGB('Light Gray',0.8,0.8,0.8);
#365=AXIS2_PLACEMENT_3D('',#499,#405,#406);
#366=AXIS2_PLACEMENT_3D('',#508,#411,#412);
#367=AXIS2_PLACEMENT_3D('PCS',#525,#413,#414);
#368=AXIS2_PLACEMENT_3D('MCS',#526,#415,#416);
#369=AXIS2_PLACEMENT_3D('CIP',#527,#417,#418);
#370=AXIS2_PLACEMENT_3D('',#528,#419,#420);
#371=AXIS2_PLACEMENT_3D('',#530,#421,#422);
#372=AXIS2_PLACEMENT_3D('',#531,#423,#424);
#373=AXIS2_PLACEMENT_3D('',#533,#425,#426);
#374=AXIS2_PLACEMENT_3D('',#534,#427,#428);
#375=AXIS2_PLACEMENT_3D('',#536,#429,#430);
#376=AXIS2_PLACEMENT_3D('',#537,#431,#432);
#377=AXIS2_PLACEMENT_3D('',#538,#433,#434);
#378=AXIS2_PLACEMENT_3D('',#540,#435,#436);
#379=AXIS2_PLACEMENT_3D('',#542,#437,#438);
#380=AXIS2_PLACEMENT_3D('',#543,#439,#440);
#381=AXIS2_PLACEMENT_3D('',#544,#441,#442);
#382=AXIS2_PLACEMENT_3D('',#545,#443,#444);
#383=AXIS2_PLACEMENT_3D('',#549,#446,#447);
#384=AXIS2_PLACEMENT_3D('',#552,#449,#450);
#385=AXIS2_PLACEMENT_3D('',#555,#452,#453);
#386=AXIS2_PLACEMENT_3D('',#556,#454,#455);
#387=AXIS2_PLACEMENT_3D('',#558,#456,#457);
#388=AXIS2_PLACEMENT_3D('',#560,#458,#459);
#389=AXIS2_PLACEMENT_3D('',#561,#460,#461);
#390=AXIS2_PLACEMENT_3D('',#565,#464,#465);
#391=AXIS2_PLACEMENT_3D('',#566,#466,#467);
#392=AXIS2_PLACEMENT_3D('',#570,#469,#470);
#393=AXIS2_PLACEMENT_3D('',#572,#471,#472);
#394=AXIS2_PLACEMENT_3D('',#575,#474,#475);
#395=AXIS2_PLACEMENT_3D('',#576,#476,#477);
#396=AXIS2_PLACEMENT_3D('',#578,#478,#479);
#397=AXIS2_PLACEMENT_3D('',#580,#480,#481);
#398=AXIS2_PLACEMENT_3D('',#582,#482,#483);
#399=AXIS2_PLACEMENT_3D('',#583,#484,#485);
#400=AXIS2_PLACEMENT_3D('',#586,#487,#488);
#401=AXIS2_PLACEMENT_3D('',#588,#489,#490);
#402=AXIS2_PLACEMENT_3D('',#591,#492,#493);
#403=AXIS2_PLACEMENT_3D('',#593,#495,#496);
#404=AXIS2_PLACEMENT_3D('',#594,#497,#498);
#405=DIRECTION('',(0.,0.,1.));
#406=DIRECTION('',(1.,0.,0.));
#407=DIRECTION('',(-0.999048221581858,0.,-0.0436193873653371));
#408=DIRECTION('',(-0.000174532924313479,0.,-0.999999984769129));
#409=DIRECTION('',(1.,0.,0.));
#410=DIRECTION('',(0.,0.,1.));
#411=DIRECTION('',(0.,-1.,0.));
#412=DIRECTION('',(0.,0.,1.));
#413=DIRECTION('',(0.,0.,1.));
#414=DIRECTION('',(1.,0.,0.));
#415=DIRECTION('',(0.,0.,1.));
#416=DIRECTION('',(1.,0.,0.));
#417=DIRECTION('',(0.,0.,1.));
#418=DIRECTION('',(1.,0.,0.));
#419=DIRECTION('',(0.,0.,-1.));
#420=DIRECTION('',(-1.,0.,0.));
#421=DIRECTION('',(0.,0.,1.));
#422=DIRECTION('',(-1.,0.,0.));
#423=DIRECTION('',(0.,0.,-1.));
#424=DIRECTION('',(-1.,0.,0.));
#425=DIRECTION('',(0.,0.,-1.));
#426=DIRECTION('',(1.,0.,4.15015958565987E-17));
#427=DIRECTION('',(0.,0.,1.));
#428=DIRECTION('',(1.,0.,0.));
#429=DIRECTION('',(0.,0.,-1.));
#430=DIRECTION('',(1.,0.,0.));
#431=DIRECTION('',(0.,0.,1.));
#432=DIRECTION('',(-1.,0.,0.));
#433=DIRECTION('',(0.,0.,-1.));
#434=DIRECTION('',(-1.,0.,0.));
#435=DIRECTION('',(0.,0.,-1.));
#436=DIRECTION('',(1.,0.,0.));
#437=DIRECTION('',(0.,0.,-1.));
#438=DIRECTION('',(1.,0.,0.));
#439=DIRECTION('',(0.,0.,-1.));
#440=DIRECTION('',(1.,0.,0.));
#441=DIRECTION('',(0.,0.,1.));
#442=DIRECTION('',(-1.,0.,0.));
#443=DIRECTION('',(0.,0.,-1.));
#444=DIRECTION('',(-1.,0.,0.));
#445=DIRECTION('',(0.,-1.,0.));
#446=DIRECTION('',(0.,0.,-1.));
#447=DIRECTION('',(1.,0.,0.));
#448=DIRECTION('',(0.,-0.000174532924313473,-0.999999984769129));
#449=DIRECTION('',(0.,0.,-1.));
#450=DIRECTION('',(1.,0.,0.));
#451=DIRECTION('',(0.,-0.000174532924313473,0.999999984769129));
#452=DIRECTION('',(0.,0.,-1.));
#453=DIRECTION('',(1.,0.,2.07160044914141E-15));
#454=DIRECTION('',(1.,0.,0.));
#455=DIRECTION('',(0.,0.,-0.999999999999998));
#456=DIRECTION('',(0.,0.,-1.));
#457=DIRECTION('',(-1.,0.,0.));
#458=DIRECTION('',(1.,0.,0.));
#459=DIRECTION('',(0.,0.,-0.999999999999998));
#460=DIRECTION('',(0.,0.,-1.));
#461=DIRECTION('',(-1.,0.,0.));
#462=DIRECTION('',(0.,-0.999048221581858,-0.0436193873653362));
#463=DIRECTION('',(0.,-0.999048221581858,0.0436193873653362));
#464=DIRECTION('',(0.,0.,-1.));
#465=DIRECTION('',(1.,0.,3.93846245762733E-18));
#466=DIRECTION('',(1.,0.,0.));
#467=DIRECTION('',(0.,0.,-1.));
#468=DIRECTION('',(0.,0.999048221581858,0.0436193873653362));
#469=DIRECTION('',(0.,0.,-1.));
#470=DIRECTION('',(-1.,0.,0.));
#471=DIRECTION('',(0.,0.,-1.));
#472=DIRECTION('',(-1.,0.,0.));
#473=DIRECTION('',(0.,0.999048221581858,-0.0436193873653362));
#474=DIRECTION('',(0.,0.,-1.));
#475=DIRECTION('',(1.,0.,3.93846245762733E-18));
#476=DIRECTION('',(-1.,0.,0.));
#477=DIRECTION('',(0.,0.,-0.999999999999998));
#478=DIRECTION('',(0.,0.,-1.));
#479=DIRECTION('',(1.,0.,0.));
#480=DIRECTION('',(0.,0.,-1.));
#481=DIRECTION('',(1.,0.,0.));
#482=DIRECTION('',(-1.,0.,0.));
#483=DIRECTION('',(0.,0.,-0.999999999999998));
#484=DIRECTION('',(0.,0.,-1.));
#485=DIRECTION('',(-1.,0.,0.));
#486=DIRECTION('',(0.,0.000174532924313473,0.999999984769129));
#487=DIRECTION('',(0.,0.,-1.));
#488=DIRECTION('',(-1.,0.,0.));
#489=DIRECTION('',(0.,0.,-1.));
#490=DIRECTION('',(-1.,0.,0.));
#491=DIRECTION('',(0.,0.000174532924313473,-0.999999984769129));
#492=DIRECTION('',(0.,0.,-1.));
#493=DIRECTION('',(1.,0.,2.07160044914141E-15));
#494=DIRECTION('',(0.,1.,0.));
#495=DIRECTION('',(0.,0.,-1.));
#496=DIRECTION('',(1.,0.,0.));
#497=DIRECTION('',(1.,0.,0.));
#498=DIRECTION('',(0.,0.,-1.));
#499=CARTESIAN_POINT('',(0.,0.,0.));
#500=CARTESIAN_POINT('',(0.,0.,40.));
#501=CARTESIAN_POINT('',(0.,0.,0.));
#502=CARTESIAN_POINT('',(0.,0.,-23.5));
#503=CARTESIAN_POINT('CRP',(-3.175,0.,-23.49963737242));
#504=CARTESIAN_POINT('',(-1.64975130215607E-15,0.,-23.3783742985608));
#505=CARTESIAN_POINT('',(-3.17174165058933,0.,-4.45000000000206));
#506=CARTESIAN_POINT('',(-3.17174165058933,0.,-4.45));
#507=CARTESIAN_POINT('',(0.,0.,-23.3783742985608));
#508=CARTESIAN_POINT('',(-2.41293052994804,0.,-22.7209991745766));
#509=CARTESIAN_POINT('',(-3.17174165058933,0.,-4.45000000000206));
#510=CARTESIAN_POINT('',(-3.17280460650692,0.,-10.540288726831));
#511=CARTESIAN_POINT('',(-3.17386756242452,0.,-16.6305774536598));
#512=CARTESIAN_POINT('',(-3.17493051834212,0.,-22.7208661804887));
#513=CARTESIAN_POINT('',(-3.17501115803379,0.,-23.1828975752196));
#514=CARTESIAN_POINT('',(-2.84128420702699,0.,-23.5024274461107));
#515=CARTESIAN_POINT('',(-2.37969255677566,0.,-23.482273919422));
#516=CARTESIAN_POINT('',(-1.5864617045171,0.,-23.4476407124683));
#517=CARTESIAN_POINT('',(-0.793230852258553,0.,-23.4130075055145));
#518=CARTESIAN_POINT('',(-8.88178419700125E-16,0.,-23.3783742985608));
#519=CARTESIAN_POINT('',(0.,0.,-17.0689161990405));
#520=CARTESIAN_POINT('',(0.,0.,-10.7594580995203));
#521=CARTESIAN_POINT('',(0.,0.,-4.45));
#522=CARTESIAN_POINT('',(-1.05724721686311,0.,-4.45));
#523=CARTESIAN_POINT('',(-2.11449443372622,0.,-4.45));
#524=CARTESIAN_POINT('',(-3.17174165058933,0.,-4.45));
#525=CARTESIAN_POINT('',(0.,0.,40.));
#526=CARTESIAN_POINT('',(0.,0.,0.));
#527=CARTESIAN_POINT('',(0.,0.,-23.5));
#528=CARTESIAN_POINT('',(0.,0.,40.));
#529=CARTESIAN_POINT('',(-2.8702,0.,40.));
#530=CARTESIAN_POINT('',(2.8702,0.,40.));
#531=CARTESIAN_POINT('',(0.,0.,39.6952));
#532=CARTESIAN_POINT('',(-3.175,0.,39.6952));
#533=CARTESIAN_POINT('',(0.,0.,39.6952));
#534=CARTESIAN_POINT('',(0.,0.,0.));
#535=CARTESIAN_POINT('',(3.175,0.,0.));
#536=CARTESIAN_POINT('',(0.,0.,0.));
#537=CARTESIAN_POINT('',(0.,0.,0.));
#538=CARTESIAN_POINT('',(0.,0.,-4.45));
#539=CARTESIAN_POINT('',(-3.175,0.,-4.45));
#540=CARTESIAN_POINT('',(0.,0.,0.));
#541=CARTESIAN_POINT('',(3.175,0.,0.));
#542=CARTESIAN_POINT('',(0.,0.,0.));
#543=CARTESIAN_POINT('',(3.17174165058933,0.,-4.45));
#544=CARTESIAN_POINT('',(0.,0.,0.));
#545=CARTESIAN_POINT('',(0.,0.,-4.45));
#546=CARTESIAN_POINT('',(0.,3.17174165058933,-4.45));
#547=CARTESIAN_POINT('',(0.,-3.17174165058933,-4.45));
#548=CARTESIAN_POINT('',(0.,0.,-4.45));
#549=CARTESIAN_POINT('',(0.,0.,-4.45));
#550=CARTESIAN_POINT('',(0.,0.,18168.290843924));
#551=CARTESIAN_POINT('',(0.,-3.17493051834212,-22.7208661804887));
#552=CARTESIAN_POINT('',(0.,0.,-22.7208661804887));
#553=CARTESIAN_POINT('',(0.,3.17493051834212,-22.7208661804887));
#554=CARTESIAN_POINT('',(0.,0.,18168.290843924));
#555=CARTESIAN_POINT('',(0.,0.,-23.1189335029558));
#556=CARTESIAN_POINT('',(0.,-2.41293052994804,-22.7209991745766));
#557=CARTESIAN_POINT('',(0.,-2.37969255677573,-23.482273919422));
#558=CARTESIAN_POINT('',(0.,0.,-23.482273919422));
#559=CARTESIAN_POINT('',(0.,2.37969255677573,-23.482273919422));
#560=CARTESIAN_POINT('',(0.,2.41293052994804,-22.7209991745766));
#561=CARTESIAN_POINT('',(0.,0.,-22.7209991745766));
#562=CARTESIAN_POINT('',(0.,0.,-23.3783742985608));
#563=CARTESIAN_POINT('',(0.,0.,-23.3783742985608));
#564=CARTESIAN_POINT('',(0.,0.,-23.3783742985608));
#565=CARTESIAN_POINT('',(0.,0.,-23.3783742985608));
#566=CARTESIAN_POINT('',(0.,0.,-23.5));
#567=CARTESIAN_POINT('',(0.,0.,-23.3783742985608));
#568=CARTESIAN_POINT('',(0.,-2.37969255677573,-23.482273919422));
#569=CARTESIAN_POINT('',(-1.6528961866627E-15,0.,-23.3783742985608));
#570=CARTESIAN_POINT('',(0.,0.,-23.482273919422));
#571=CARTESIAN_POINT('',(-2.37969255677566,0.,-23.482273919422));
#572=CARTESIAN_POINT('',(0.,0.,-23.482273919422));
#573=CARTESIAN_POINT('',(0.,2.37969255677573,-23.482273919422));
#574=CARTESIAN_POINT('',(0.,0.,-23.3783742985608));
#575=CARTESIAN_POINT('',(0.,0.,-23.3783742985608));
#576=CARTESIAN_POINT('',(0.,-2.41293052994804,-22.7209991745766));
#577=CARTESIAN_POINT('',(0.,-3.17493051834212,-22.7208661804887));
#578=CARTESIAN_POINT('',(0.,0.,-22.7208661804887));
#579=CARTESIAN_POINT('',(-3.17493051834212,0.,-22.7208661804887));
#580=CARTESIAN_POINT('',(0.,0.,-22.7208661804887));
#581=CARTESIAN_POINT('',(0.,3.17493051834212,-22.7208661804887));
#582=CARTESIAN_POINT('',(0.,2.41293052994804,-22.7209991745766));
#583=CARTESIAN_POINT('',(0.,0.,-22.7209991745766));
#584=CARTESIAN_POINT('',(0.,0.,18168.290843924));
#585=CARTESIAN_POINT('',(0.,-3.17174165058933,-4.45));
#586=CARTESIAN_POINT('',(0.,0.,-4.45));
#587=CARTESIAN_POINT('',(-3.17174165058933,0.,-4.45));
#588=CARTESIAN_POINT('',(0.,0.,-4.45));
#589=CARTESIAN_POINT('',(0.,3.17174165058933,-4.45));
#590=CARTESIAN_POINT('',(0.,0.,18168.290843924));
#591=CARTESIAN_POINT('',(0.,0.,-23.1189335029558));
#592=CARTESIAN_POINT('',(0.,0.,-4.45));
#593=CARTESIAN_POINT('',(0.,0.,-4.45));
#594=CARTESIAN_POINT('',(0.,0.,-23.5));
#595=MECHANICAL_DESIGN_GEOMETRIC_PRESENTATION_REPRESENTATION('',(#319,#320,
#321,#322,#323,#324,#325,#326,#327,#328,#329,#330,#331,#332,#333,#334,#335),
#596);
#596=(
GEOMETRIC_REPRESENTATION_CONTEXT(3)
GLOBAL_UNCERTAINTY_ASSIGNED_CONTEXT((#597))
GLOBAL_UNIT_ASSIGNED_CONTEXT((#603,#599,#598))
REPRESENTATION_CONTEXT('STR440.2.250D3R030','TOP_LEVEL_ASSEMBLY_PART')
);
#597=UNCERTAINTY_MEASURE_WITH_UNIT(LENGTH_MEASURE(2.E-5),#603,
'DISTANCE_ACCURACY_VALUE','Maximum Tolerance applied to model');
#598=(
NAMED_UNIT(*)
SI_UNIT($,.STERADIAN.)
SOLID_ANGLE_UNIT()
);
#599=(
CONVERSION_BASED_UNIT('DEGREE',#601)
NAMED_UNIT(#600)
PLANE_ANGLE_UNIT()
);
#600=DIMENSIONAL_EXPONENTS(0.,0.,0.,0.,0.,0.,0.);
#601=PLANE_ANGLE_MEASURE_WITH_UNIT(PLANE_ANGLE_MEASURE(0.0174532925),#602);
#602=(
NAMED_UNIT(*)
PLANE_ANGLE_UNIT()
SI_UNIT($,.RADIAN.)
);
#603=(
LENGTH_UNIT()
NAMED_UNIT(*)
SI_UNIT(.MILLI.,.METRE.)
);
ENDSEC;
END-ISO-10303-21;
