ISO-10303-21;
HEADER;
/* Generated by software containing ST-Developer
 * from STEP Tools, Inc. (www.steptools.com) 
 */
/* OPTION: using custom schema-name function */

FILE_DESCRIPTION(
/* description */ (''),
/* implementation_level */ '2;1');

FILE_NAME(
/* name */ 'STR440.2.188D2R060.0Z4_Basic.stp',
/* time_stamp */ '2022-03-02T12:52:10+05:00',
/* author */ (''),
/* organization */ (''),
/* preprocessor_version */ 'ST-DEVELOPER v16.7',
/* originating_system */ 'SIEMENS PLM Software NX 12.0',
/* authorisation */ '');

FILE_SCHEMA (('AUTOMOTIVE_DESIGN { 1 0 10303 214 3 1 1 1 }'));
ENDSEC;

DATA;
#10=CONSTRUCTIVE_GEOMETRY_REPRESENTATION_RELATIONSHIP(
'supplemental geometry','',#34,#11);
#11=CONSTRUCTIVE_GEOMETRY_REPRESENTATION('supplemental geometry',(#201,
#202,#203),#346);
#12=GEOMETRICALLY_BOUNDED_WIREFRAME_SHAPE_REPRESENTATION(
'STR440.2.188D2R060.0Z4_Basic-None',(#35),#346);
#13=PROPERTY_DEFINITION_REPRESENTATION(#17,#15);
#14=PROPERTY_DEFINITION_REPRESENTATION(#18,#16);
#15=REPRESENTATION('',(#19),#346);
#16=REPRESENTATION('',(#20),#346);
#17=PROPERTY_DEFINITION('pmi validation property','',#25);
#18=PROPERTY_DEFINITION('pmi validation property','',#25);
#19=VALUE_REPRESENTATION_ITEM('number of annotations',COUNT_MEASURE(0.));
#20=VALUE_REPRESENTATION_ITEM('number of views',COUNT_MEASURE(0.));
#21=SHAPE_REPRESENTATION_RELATIONSHIP('None',
'relationship between STR440.2.188D2R060.0Z4_Basic-None and STR440.2.1
88D2R060.0Z4_Basic-None',#34,#23);
#22=SHAPE_REPRESENTATION_RELATIONSHIP('None',
'relationship between STR440.2.188D2R060.0Z4_Basic-None and STR440.2.1
88D2R060.0Z4_Basic-None',#34,#12);
#23=ADVANCED_BREP_SHAPE_REPRESENTATION(
'STR440.2.188D2R060.0Z4_Basic-None',(#53,#54,#55),#346);
#24=SHAPE_DEFINITION_REPRESENTATION(#25,#34);
#25=PRODUCT_DEFINITION_SHAPE('','',#26);
#26=PRODUCT_DEFINITION(' ','',#28,#27);
#27=PRODUCT_DEFINITION_CONTEXT('part definition',#33,'design');
#28=PRODUCT_DEFINITION_FORMATION_WITH_SPECIFIED_SOURCE(' ',' ',#30,
 .NOT_KNOWN.);
#29=PRODUCT_RELATED_PRODUCT_CATEGORY('part','',(#30));
#30=PRODUCT('inpu0964B760k3w9','inpu0964B760k3w9',' ',(#31));
#31=PRODUCT_CONTEXT(' ',#33,'mechanical');
#32=APPLICATION_PROTOCOL_DEFINITION('international standard',
'automotive_design',2010,#33);
#33=APPLICATION_CONTEXT(
'core data for automotive mechanical design processes');
#34=SHAPE_REPRESENTATION('STR440.2.188D2R060.0Z4_Basic-None',(#200),#346);
#35=GEOMETRIC_CURVE_SET('None',(#267,#268,#269,#270,#163));
#36=(
BOUNDED_SURFACE()
B_SPLINE_SURFACE(3,3,((#313,#314,#315,#316,#317,#318,#319),(#320,#321,#322,
#323,#324,#325,#326),(#327,#328,#329,#330,#331,#332,#333),(#334,#335,#336,
#337,#338,#339,#340)),.UNSPECIFIED.,.F.,.T.,.F.)
B_SPLINE_SURFACE_WITH_KNOTS((4,4),(1,3,3,3,1),(0.,1.),(-0.5,0.,0.5,1.,1.5),
 .UNSPECIFIED.)
GEOMETRIC_REPRESENTATION_ITEM()
RATIONAL_B_SPLINE_SURFACE(((1.,0.333333333333333,0.333333333333333,1.,0.333333333333333,
0.333333333333333,1.),(0.794300010001156,0.264766670000385,0.264766670000385,
0.794300010001156,0.264766670000385,0.264766670000385,0.794300010001156),
(0.794300010001156,0.264766670000385,0.264766670000385,0.794300010001156,
0.264766670000385,0.264766670000385,0.794300010001156),(1.,0.333333333333333,
0.333333333333333,1.,0.333333333333333,0.333333333333333,1.)))
REPRESENTATION_ITEM('')
SURFACE()
);
#37=VERTEX_LOOP('',#135);
#38=SURFACE_STYLE_USAGE(.BOTH.,#41);
#39=SURFACE_STYLE_USAGE(.BOTH.,#42);
#40=SURFACE_STYLE_USAGE(.BOTH.,#43);
#41=SURFACE_SIDE_STYLE('',(#44));
#42=SURFACE_SIDE_STYLE('',(#45));
#43=SURFACE_SIDE_STYLE('',(#46));
#44=SURFACE_STYLE_FILL_AREA(#47);
#45=SURFACE_STYLE_FILL_AREA(#48);
#46=SURFACE_STYLE_FILL_AREA(#49);
#47=FILL_AREA_STYLE('',(#50));
#48=FILL_AREA_STYLE('',(#51));
#49=FILL_AREA_STYLE('',(#52));
#50=FILL_AREA_STYLE_COLOUR('',#198);
#51=FILL_AREA_STYLE_COLOUR('',#198);
#52=FILL_AREA_STYLE_COLOUR('',#199);
#53=MANIFOLD_SOLID_BREP('NOCUT',#56);
#54=MANIFOLD_SOLID_BREP('NOCUT',#57);
#55=MANIFOLD_SOLID_BREP('CUT',#58);
#56=CLOSED_SHELL('',(#76,#77,#78,#79));
#57=CLOSED_SHELL('',(#80,#81,#82));
#58=CLOSED_SHELL('',(#83,#84,#85,#86));
#59=CYLINDRICAL_SURFACE('',#209,2.38125);
#60=CYLINDRICAL_SURFACE('',#213,2.38125);
#61=CONICAL_SURFACE('',#207,2.38125,45.);
#62=CONICAL_SURFACE('',#217,2.98516381621289E-15,87.5000000000001);
#63=CONICAL_SURFACE('',#220,2.38124998839408,0.010000000000034);
#64=FACE_BOUND('',#98,.T.);
#65=FACE_BOUND('',#99,.T.);
#66=FACE_BOUND('',#100,.T.);
#67=FACE_BOUND('',#101,.T.);
#68=FACE_BOUND('',#103,.T.);
#69=FACE_BOUND('',#104,.T.);
#70=FACE_BOUND('',#107,.T.);
#71=FACE_BOUND('',#37,.T.);
#72=FACE_BOUND('',#108,.T.);
#73=FACE_BOUND('',#109,.T.);
#74=FACE_BOUND('',#110,.T.);
#75=FACE_BOUND('',#111,.T.);
#76=ADVANCED_FACE('',(#92),#87,.T.);
#77=ADVANCED_FACE('',(#64,#65),#61,.T.);
#78=ADVANCED_FACE('',(#66,#67),#59,.T.);
#79=ADVANCED_FACE('',(#93),#88,.F.);
#80=ADVANCED_FACE('',(#68,#69),#60,.T.);
#81=ADVANCED_FACE('',(#94),#89,.T.);
#82=ADVANCED_FACE('',(#95),#90,.T.);
#83=ADVANCED_FACE('',(#70,#71),#62,.F.);
#84=ADVANCED_FACE('',(#72,#73),#36,.T.);
#85=ADVANCED_FACE('',(#74,#75),#63,.T.);
#86=ADVANCED_FACE('',(#96),#91,.F.);
#87=PLANE('',#205);
#88=PLANE('',#210);
#89=PLANE('',#214);
#90=PLANE('',#215);
#91=PLANE('',#221);
#92=FACE_OUTER_BOUND('',#97,.T.);
#93=FACE_OUTER_BOUND('',#102,.T.);
#94=FACE_OUTER_BOUND('',#105,.T.);
#95=FACE_OUTER_BOUND('',#106,.T.);
#96=FACE_OUTER_BOUND('',#112,.T.);
#97=EDGE_LOOP('',(#113));
#98=EDGE_LOOP('',(#114));
#99=EDGE_LOOP('',(#115));
#100=EDGE_LOOP('',(#116));
#101=EDGE_LOOP('',(#117));
#102=EDGE_LOOP('',(#118));
#103=EDGE_LOOP('',(#119));
#104=EDGE_LOOP('',(#120));
#105=EDGE_LOOP('',(#121));
#106=EDGE_LOOP('',(#122));
#107=EDGE_LOOP('',(#123));
#108=EDGE_LOOP('',(#124));
#109=EDGE_LOOP('',(#125));
#110=EDGE_LOOP('',(#126));
#111=EDGE_LOOP('',(#127));
#112=EDGE_LOOP('',(#128));
#113=ORIENTED_EDGE('',*,*,#138,.F.);
#114=ORIENTED_EDGE('',*,*,#138,.T.);
#115=ORIENTED_EDGE('',*,*,#139,.F.);
#116=ORIENTED_EDGE('',*,*,#140,.T.);
#117=ORIENTED_EDGE('',*,*,#139,.T.);
#118=ORIENTED_EDGE('',*,*,#140,.F.);
#119=ORIENTED_EDGE('',*,*,#141,.F.);
#120=ORIENTED_EDGE('',*,*,#142,.T.);
#121=ORIENTED_EDGE('',*,*,#141,.T.);
#122=ORIENTED_EDGE('',*,*,#142,.F.);
#123=ORIENTED_EDGE('',*,*,#143,.T.);
#124=ORIENTED_EDGE('',*,*,#144,.T.);
#125=ORIENTED_EDGE('',*,*,#143,.F.);
#126=ORIENTED_EDGE('',*,*,#145,.T.);
#127=ORIENTED_EDGE('',*,*,#144,.F.);
#128=ORIENTED_EDGE('',*,*,#145,.F.);
#129=VERTEX_POINT('',#291);
#130=VERTEX_POINT('',#294);
#131=VERTEX_POINT('',#297);
#132=VERTEX_POINT('',#301);
#133=VERTEX_POINT('',#303);
#134=VERTEX_POINT('',#308);
#135=VERTEX_POINT('',#309);
#136=VERTEX_POINT('',#312);
#137=VERTEX_POINT('',#342);
#138=EDGE_CURVE('',#129,#129,#146,.T.);
#139=EDGE_CURVE('',#130,#130,#147,.T.);
#140=EDGE_CURVE('',#131,#131,#148,.T.);
#141=EDGE_CURVE('',#132,#132,#149,.T.);
#142=EDGE_CURVE('',#133,#133,#150,.T.);
#143=EDGE_CURVE('',#134,#134,#151,.T.);
#144=EDGE_CURVE('',#136,#136,#152,.T.);
#145=EDGE_CURVE('',#137,#137,#153,.T.);
#146=CIRCLE('',#204,2.07645);
#147=CIRCLE('',#206,2.38125);
#148=CIRCLE('',#208,2.38125);
#149=CIRCLE('',#211,2.38125);
#150=CIRCLE('',#212,2.38125);
#151=CIRCLE('',#216,0.790635113551314);
#152=CIRCLE('',#218,2.38111103668424);
#153=CIRCLE('',#219,2.37972057956687);
#154=CURVE_STYLE('',#159,POSITIVE_LENGTH_MEASURE(0.18),#158);
#155=CURVE_STYLE('',#160,POSITIVE_LENGTH_MEASURE(0.18),#196);
#156=CURVE_STYLE('',#161,POSITIVE_LENGTH_MEASURE(0.18),#196);
#157=CURVE_STYLE('',#162,POSITIVE_LENGTH_MEASURE(0.18),#196);
#158=DRAUGHTING_PRE_DEFINED_COLOUR('blue');
#159=DRAUGHTING_PRE_DEFINED_CURVE_FONT('continuous');
#160=DRAUGHTING_PRE_DEFINED_CURVE_FONT('continuous');
#161=DRAUGHTING_PRE_DEFINED_CURVE_FONT('continuous');
#162=DRAUGHTING_PRE_DEFINED_CURVE_FONT('continuous');
#163=TRIMMED_CURVE('CUTTING PART LINE',#164,(PARAMETER_VALUE(0.)),(
PARAMETER_VALUE(1.)),.T.,.PARAMETER.);
#164=(
BOUNDED_CURVE()
B_SPLINE_CURVE(3,(#271,#272,#273,#274,#275,#276,#277,#278,#279,#280,#281,
#282,#283,#284,#285,#286),.UNSPECIFIED.,.T.,.F.)
B_SPLINE_CURVE_WITH_KNOTS((4,3,3,3,3,4),(0.,0.345575443952791,0.452312115585869,
0.486640414857002,0.896774116920406,1.),.UNSPECIFIED.)
CURVE()
GEOMETRIC_REPRESENTATION_ITEM()
RATIONAL_B_SPLINE_CURVE((1.,1.,1.,1.,0.794300010001156,0.794300010001156,
1.,1.,1.,1.,1.,1.,1.,1.,1.,1.))
REPRESENTATION_ITEM('CUTTING PART LINE')
);
#165=PRESENTATION_LAYER_ASSIGNMENT('1','Layer 1',(#267,#268,#269,#270,#163,
#201,#202,#203,#53,#54,#55));
#166=STYLED_ITEM('',(#177),#267);
#167=STYLED_ITEM('',(#178),#268);
#168=STYLED_ITEM('',(#179),#269);
#169=STYLED_ITEM('',(#180),#270);
#170=STYLED_ITEM('',(#181),#163);
#171=STYLED_ITEM('',(#182),#201);
#172=STYLED_ITEM('',(#183),#202);
#173=STYLED_ITEM('',(#184),#203);
#174=STYLED_ITEM('',(#185),#53);
#175=STYLED_ITEM('',(#186),#54);
#176=STYLED_ITEM('',(#187),#55);
#177=PRESENTATION_STYLE_ASSIGNMENT((#188));
#178=PRESENTATION_STYLE_ASSIGNMENT((#189));
#179=PRESENTATION_STYLE_ASSIGNMENT((#190));
#180=PRESENTATION_STYLE_ASSIGNMENT((#191));
#181=PRESENTATION_STYLE_ASSIGNMENT((#154));
#182=PRESENTATION_STYLE_ASSIGNMENT((#155));
#183=PRESENTATION_STYLE_ASSIGNMENT((#156));
#184=PRESENTATION_STYLE_ASSIGNMENT((#157));
#185=PRESENTATION_STYLE_ASSIGNMENT((#38));
#186=PRESENTATION_STYLE_ASSIGNMENT((#39));
#187=PRESENTATION_STYLE_ASSIGNMENT((#40));
#188=POINT_STYLE('',#192,POSITIVE_LENGTH_MEASURE(3.),#196);
#189=POINT_STYLE('',#193,POSITIVE_LENGTH_MEASURE(3.),#196);
#190=POINT_STYLE('',#194,POSITIVE_LENGTH_MEASURE(3.),#196);
#191=POINT_STYLE('',#195,POSITIVE_LENGTH_MEASURE(3.),#197);
#192=PRE_DEFINED_POINT_MARKER_SYMBOL('plus');
#193=PRE_DEFINED_POINT_MARKER_SYMBOL('plus');
#194=PRE_DEFINED_POINT_MARKER_SYMBOL('plus');
#195=PRE_DEFINED_POINT_MARKER_SYMBOL('plus');
#196=COLOUR_RGB('Pale Maroon',0.811749446860456,0.603921568627451,0.611749446860456);
#197=COLOUR_RGB('Medium Royal',0.2,0.4,0.8);
#198=COLOUR_RGB('Medium Gray',0.490196078431373,0.490196078431373,0.490196078431373);
#199=COLOUR_RGB('Light Gray',0.8,0.8,0.8);
#200=AXIS2_PLACEMENT_3D('',#266,#222,#223);
#201=AXIS2_PLACEMENT_3D('PCS',#287,#224,#225);
#202=AXIS2_PLACEMENT_3D('MCS',#288,#226,#227);
#203=AXIS2_PLACEMENT_3D('CIP',#289,#228,#229);
#204=AXIS2_PLACEMENT_3D('',#290,#230,#231);
#205=AXIS2_PLACEMENT_3D('',#292,#232,#233);
#206=AXIS2_PLACEMENT_3D('',#293,#234,#235);
#207=AXIS2_PLACEMENT_3D('',#295,#236,#237);
#208=AXIS2_PLACEMENT_3D('',#296,#238,#239);
#209=AXIS2_PLACEMENT_3D('',#298,#240,#241);
#210=AXIS2_PLACEMENT_3D('',#299,#242,#243);
#211=AXIS2_PLACEMENT_3D('',#300,#244,#245);
#212=AXIS2_PLACEMENT_3D('',#302,#246,#247);
#213=AXIS2_PLACEMENT_3D('',#304,#248,#249);
#214=AXIS2_PLACEMENT_3D('',#305,#250,#251);
#215=AXIS2_PLACEMENT_3D('',#306,#252,#253);
#216=AXIS2_PLACEMENT_3D('',#307,#254,#255);
#217=AXIS2_PLACEMENT_3D('',#310,#256,#257);
#218=AXIS2_PLACEMENT_3D('',#311,#258,#259);
#219=AXIS2_PLACEMENT_3D('',#341,#260,#261);
#220=AXIS2_PLACEMENT_3D('',#343,#262,#263);
#221=AXIS2_PLACEMENT_3D('',#344,#264,#265);
#222=DIRECTION('',(0.,0.,1.));
#223=DIRECTION('',(1.,0.,0.));
#224=DIRECTION('',(0.,0.,1.));
#225=DIRECTION('',(1.,0.,0.));
#226=DIRECTION('',(0.,0.,1.));
#227=DIRECTION('',(1.,0.,0.));
#228=DIRECTION('',(0.,0.,1.));
#229=DIRECTION('',(1.,0.,0.));
#230=DIRECTION('',(0.,0.,-1.));
#231=DIRECTION('',(-1.,0.,0.));
#232=DIRECTION('',(0.,0.,1.));
#233=DIRECTION('',(-1.,0.,0.));
#234=DIRECTION('',(0.,0.,-1.));
#235=DIRECTION('',(-1.,0.,0.));
#236=DIRECTION('',(0.,0.,-1.));
#237=DIRECTION('',(1.,0.,4.15344594917786E-17));
#238=DIRECTION('',(0.,0.,1.));
#239=DIRECTION('',(1.,0.,0.));
#240=DIRECTION('',(0.,0.,-1.));
#241=DIRECTION('',(1.,0.,0.));
#242=DIRECTION('',(0.,0.,1.));
#243=DIRECTION('',(-1.,0.,0.));
#244=DIRECTION('',(0.,0.,-1.));
#245=DIRECTION('',(-1.,0.,0.));
#246=DIRECTION('',(0.,0.,-1.));
#247=DIRECTION('',(1.,0.,0.));
#248=DIRECTION('',(0.,0.,-1.));
#249=DIRECTION('',(1.,0.,0.));
#250=DIRECTION('',(0.,0.,-1.));
#251=DIRECTION('',(1.,0.,0.));
#252=DIRECTION('',(0.,0.,1.));
#253=DIRECTION('',(-1.,0.,0.));
#254=DIRECTION('',(0.,0.,-1.));
#255=DIRECTION('',(-1.,0.,0.));
#256=DIRECTION('',(0.,0.,-1.));
#257=DIRECTION('',(1.,0.,-4.46864009615388E-18));
#258=DIRECTION('',(0.,0.,-1.));
#259=DIRECTION('',(1.,0.,0.));
#260=DIRECTION('',(0.,0.,-1.));
#261=DIRECTION('',(-1.,0.,0.));
#262=DIRECTION('',(0.,0.,-1.));
#263=DIRECTION('',(1.,0.,-4.14034116115137E-14));
#264=DIRECTION('',(0.,0.,-1.));
#265=DIRECTION('',(1.,0.,0.));
#266=CARTESIAN_POINT('',(0.,0.,0.));
#267=CARTESIAN_POINT('',(0.,0.,38.));
#268=CARTESIAN_POINT('',(0.,0.,0.));
#269=CARTESIAN_POINT('',(0.,0.,-12.8));
#270=CARTESIAN_POINT('CRP',(-2.38125,0.,-12.79927474485));
#271=CARTESIAN_POINT('',(-2.37972057956687,0.,-3.27500000000214));
#272=CARTESIAN_POINT('',(-2.38018406527266,0.,-5.9305774536611));
#273=CARTESIAN_POINT('',(-2.38064755097845,0.,-8.58615490732006));
#274=CARTESIAN_POINT('',(-2.38111103668424,0.,-11.2417323609781));
#275=CARTESIAN_POINT('',(-2.38127231606759,0.,-12.1657951504392));
#276=CARTESIAN_POINT('',(-1.71381841405412,0.,-12.8048548922214));
#277=CARTESIAN_POINT('',(-0.790635113551314,0.,-12.764547838844));
#278=CARTESIAN_POINT('',(-0.527090075700877,0.,-12.7530412139926));
#279=CARTESIAN_POINT('',(-0.26354503785044,0.,-12.7415345891412));
#280=CARTESIAN_POINT('',(-1.49880108324396E-15,0.,-12.7300279642898));
#281=CARTESIAN_POINT('',(0.,0.,-9.5783519761932));
#282=CARTESIAN_POINT('',(0.,0.,-6.4266759880966));
#283=CARTESIAN_POINT('',(0.,0.,-3.275));
#284=CARTESIAN_POINT('',(-0.793240193188957,0.,-3.275));
#285=CARTESIAN_POINT('',(-1.58648038637791,0.,-3.275));
#286=CARTESIAN_POINT('',(-2.37972057956687,0.,-3.275));
#287=CARTESIAN_POINT('',(0.,0.,38.));
#288=CARTESIAN_POINT('',(0.,0.,0.));
#289=CARTESIAN_POINT('',(0.,0.,-12.8));
#290=CARTESIAN_POINT('',(0.,0.,38.));
#291=CARTESIAN_POINT('',(-2.07645,0.,38.));
#292=CARTESIAN_POINT('',(2.07645,0.,38.));
#293=CARTESIAN_POINT('',(0.,0.,37.6952));
#294=CARTESIAN_POINT('',(-2.38125,0.,37.6952));
#295=CARTESIAN_POINT('',(0.,0.,37.6952));
#296=CARTESIAN_POINT('',(0.,0.,0.));
#297=CARTESIAN_POINT('',(2.38125,0.,0.));
#298=CARTESIAN_POINT('',(0.,0.,0.));
#299=CARTESIAN_POINT('',(0.,0.,0.));
#300=CARTESIAN_POINT('',(0.,0.,-3.275));
#301=CARTESIAN_POINT('',(-2.38125,0.,-3.275));
#302=CARTESIAN_POINT('',(0.,0.,0.));
#303=CARTESIAN_POINT('',(2.38125,0.,0.));
#304=CARTESIAN_POINT('',(0.,0.,0.));
#305=CARTESIAN_POINT('',(2.37972057956687,0.,-3.275));
#306=CARTESIAN_POINT('',(0.,0.,0.));
#307=CARTESIAN_POINT('',(0.,0.,-12.764547838844));
#308=CARTESIAN_POINT('',(-0.790635113551314,0.,-12.764547838844));
#309=CARTESIAN_POINT('',(-2.98516381621289E-15,0.,-12.7300279642898));
#310=CARTESIAN_POINT('',(0.,0.,-12.7300279642898));
#311=CARTESIAN_POINT('',(0.,0.,-11.2417323609773));
#312=CARTESIAN_POINT('',(-2.38111103668424,0.,-11.2417323609773));
#313=CARTESIAN_POINT('',(-0.790635113551314,0.,-12.764547838844));
#314=CARTESIAN_POINT('',(-0.790635113551314,1.58127022710263,-12.764547838844));
#315=CARTESIAN_POINT('',(0.790635113551314,1.58127022710263,-12.764547838844));
#316=CARTESIAN_POINT('',(0.790635113551314,0.,-12.764547838844));
#317=CARTESIAN_POINT('',(0.790635113551314,-1.58127022710263,-12.764547838844));
#318=CARTESIAN_POINT('',(-0.790635113551314,-1.58127022710263,-12.764547838844));
#319=CARTESIAN_POINT('',(-0.790635113551314,0.,-12.764547838844));
#320=CARTESIAN_POINT('',(-1.71381841405412,0.,-12.8048548922214));
#321=CARTESIAN_POINT('',(-1.71381841405412,3.42763682810823,-12.8048548922214));
#322=CARTESIAN_POINT('',(1.71381841405412,3.42763682810823,-12.8048548922214));
#323=CARTESIAN_POINT('',(1.71381841405412,0.,-12.8048548922214));
#324=CARTESIAN_POINT('',(1.71381841405412,-3.42763682810823,-12.8048548922214));
#325=CARTESIAN_POINT('',(-1.71381841405412,-3.42763682810823,-12.8048548922214));
#326=CARTESIAN_POINT('',(-1.71381841405412,0.,-12.8048548922214));
#327=CARTESIAN_POINT('',(-2.3812723160672,0.,-12.1657951504392));
#328=CARTESIAN_POINT('',(-2.3812723160672,4.76254463213441,-12.1657951504392));
#329=CARTESIAN_POINT('',(2.3812723160672,4.76254463213441,-12.1657951504392));
#330=CARTESIAN_POINT('',(2.3812723160672,0.,-12.1657951504392));
#331=CARTESIAN_POINT('',(2.3812723160672,-4.76254463213441,-12.1657951504392));
#332=CARTESIAN_POINT('',(-2.3812723160672,-4.76254463213441,-12.1657951504392));
#333=CARTESIAN_POINT('',(-2.3812723160672,0.,-12.1657951504392));
#334=CARTESIAN_POINT('',(-2.38111103668424,0.,-11.2417323609773));
#335=CARTESIAN_POINT('',(-2.38111103668424,4.76222207336847,-11.2417323609773));
#336=CARTESIAN_POINT('',(2.38111103668424,4.76222207336847,-11.2417323609773));
#337=CARTESIAN_POINT('',(2.38111103668424,0.,-11.2417323609773));
#338=CARTESIAN_POINT('',(2.38111103668424,-4.76222207336847,-11.2417323609773));
#339=CARTESIAN_POINT('',(-2.38111103668424,-4.76222207336847,-11.2417323609773));
#340=CARTESIAN_POINT('',(-2.38111103668424,0.,-11.2417323609773));
#341=CARTESIAN_POINT('',(0.,0.,-3.275));
#342=CARTESIAN_POINT('',(-2.37972057956687,0.,-3.275));
#343=CARTESIAN_POINT('',(0.,0.,-12.0378670059117));
#344=CARTESIAN_POINT('',(0.,0.,-3.275));
#345=MECHANICAL_DESIGN_GEOMETRIC_PRESENTATION_REPRESENTATION('',(#166,#167,
#168,#169,#170,#171,#172,#173,#174,#175,#176),#346);
#346=(
GEOMETRIC_REPRESENTATION_CONTEXT(3)
GLOBAL_UNCERTAINTY_ASSIGNED_CONTEXT((#347))
GLOBAL_UNIT_ASSIGNED_CONTEXT((#353,#349,#348))
REPRESENTATION_CONTEXT('STR440.2.188D2R060','TOP_LEVEL_ASSEMBLY_PART')
);
#347=UNCERTAINTY_MEASURE_WITH_UNIT(LENGTH_MEASURE(0.0254),#353,
'DISTANCE_ACCURACY_VALUE','Maximum Tolerance applied to model');
#348=(
NAMED_UNIT(*)
SI_UNIT($,.STERADIAN.)
SOLID_ANGLE_UNIT()
);
#349=(
CONVERSION_BASED_UNIT('DEGREE',#351)
NAMED_UNIT(#350)
PLANE_ANGLE_UNIT()
);
#350=DIMENSIONAL_EXPONENTS(0.,0.,0.,0.,0.,0.,0.);
#351=PLANE_ANGLE_MEASURE_WITH_UNIT(PLANE_ANGLE_MEASURE(0.0174532925),#352);
#352=(
NAMED_UNIT(*)
PLANE_ANGLE_UNIT()
SI_UNIT($,.RADIAN.)
);
#353=(
LENGTH_UNIT()
NAMED_UNIT(*)
SI_UNIT(.MILLI.,.METRE.)
);
ENDSEC;
END-ISO-10303-21;
