ISO-10303-21;
HEADER;
/* Generated by software containing ST-Developer
 * from STEP Tools, Inc. (www.steptools.com) 
 */
/* OPTION: using custom schema-name function */

FILE_DESCRIPTION(
/* description */ (''),
/* implementation_level */ '2;1');

FILE_NAME(
/* name */ 'STB440.2.375D2B.3Z4_Basic.stp',
/* time_stamp */ '2022-02-17T15:24:42+06:00',
/* author */ (''),
/* organization */ (''),
/* preprocessor_version */ 'ST-DEVELOPER v16.7',
/* originating_system */ 'SIEMENS PLM Software NX 12.0',
/* authorisation */ '');

FILE_SCHEMA (('AUTOMOTIVE_DESIGN { 1 0 10303 214 3 1 1 1 }'));
ENDSEC;

DATA;
#10=CONSTRUCTIVE_GEOMETRY_REPRESENTATION_RELATIONSHIP(
'supplemental geometry','',#34,#11);
#11=CONSTRUCTIVE_GEOMETRY_REPRESENTATION('supplemental geometry',(#195,
#196,#197,#198),#308);
#12=GEOMETRICALLY_BOUNDED_WIREFRAME_SHAPE_REPRESENTATION(
'STB440.2.375D2B.3Z4_Basic-None',(#35),#308);
#13=PROPERTY_DEFINITION_REPRESENTATION(#17,#15);
#14=PROPERTY_DEFINITION_REPRESENTATION(#18,#16);
#15=REPRESENTATION('',(#19),#308);
#16=REPRESENTATION('',(#20),#308);
#17=PROPERTY_DEFINITION('pmi validation property','',#25);
#18=PROPERTY_DEFINITION('pmi validation property','',#25);
#19=VALUE_REPRESENTATION_ITEM('number of annotations',COUNT_MEASURE(0.));
#20=VALUE_REPRESENTATION_ITEM('number of views',COUNT_MEASURE(0.));
#21=SHAPE_REPRESENTATION_RELATIONSHIP('None',
'relationship between STB440.2.375D2B.3Z4_Basic-None and STB440.2.375D
2B.3Z4_Basic-None',#34,#23);
#22=SHAPE_REPRESENTATION_RELATIONSHIP('None',
'relationship between STB440.2.375D2B.3Z4_Basic-None and STB440.2.375D
2B.3Z4_Basic-None',#34,#12);
#23=ADVANCED_BREP_SHAPE_REPRESENTATION('STB440.2.375D2B.3Z4_Basic-None',
(#52,#53,#54),#308);
#24=SHAPE_DEFINITION_REPRESENTATION(#25,#34);
#25=PRODUCT_DEFINITION_SHAPE('','',#26);
#26=PRODUCT_DEFINITION(' ','',#28,#27);
#27=PRODUCT_DEFINITION_CONTEXT('part definition',#33,'design');
#28=PRODUCT_DEFINITION_FORMATION_WITH_SPECIFIED_SOURCE(' ',' ',#30,
 .NOT_KNOWN.);
#29=PRODUCT_RELATED_PRODUCT_CATEGORY('part','',(#30));
#30=PRODUCT('inpu5028E108lqbz','inpu5028E108lqbz',' ',(#31));
#31=PRODUCT_CONTEXT(' ',#33,'mechanical');
#32=APPLICATION_PROTOCOL_DEFINITION('international standard',
'automotive_design',2010,#33);
#33=APPLICATION_CONTEXT(
'core data for automotive mechanical design processes');
#34=SHAPE_REPRESENTATION('STB440.2.375D2B.3Z4_Basic-None',(#194),#308);
#35=GEOMETRIC_CURVE_SET('None',(#261,#262,#263,#264,#265,#151));
#36=SPHERICAL_SURFACE('',#212,4.7625);
#37=SURFACE_STYLE_USAGE(.BOTH.,#40);
#38=SURFACE_STYLE_USAGE(.BOTH.,#41);
#39=SURFACE_STYLE_USAGE(.BOTH.,#42);
#40=SURFACE_SIDE_STYLE('',(#43));
#41=SURFACE_SIDE_STYLE('',(#44));
#42=SURFACE_SIDE_STYLE('',(#45));
#43=SURFACE_STYLE_FILL_AREA(#46);
#44=SURFACE_STYLE_FILL_AREA(#47);
#45=SURFACE_STYLE_FILL_AREA(#48);
#46=FILL_AREA_STYLE('',(#49));
#47=FILL_AREA_STYLE('',(#50));
#48=FILL_AREA_STYLE('',(#51));
#49=FILL_AREA_STYLE_COLOUR('',#192);
#50=FILL_AREA_STYLE_COLOUR('',#192);
#51=FILL_AREA_STYLE_COLOUR('',#193);
#52=MANIFOLD_SOLID_BREP('NOCUT',#55);
#53=MANIFOLD_SOLID_BREP('NOCUT',#56);
#54=MANIFOLD_SOLID_BREP('CUT',#57);
#55=CLOSED_SHELL('',(#70,#71,#72,#73));
#56=CLOSED_SHELL('',(#74,#75,#76));
#57=CLOSED_SHELL('',(#77,#78,#79));
#58=CYLINDRICAL_SURFACE('',#204,4.7625);
#59=CYLINDRICAL_SURFACE('',#208,4.7625);
#60=CONICAL_SURFACE('',#202,4.7625,44.9999999999994);
#61=CONICAL_SURFACE('',#214,4.76249992746298,0.010000000000017);
#62=FACE_BOUND('',#92,.T.);
#63=FACE_BOUND('',#93,.T.);
#64=FACE_BOUND('',#94,.T.);
#65=FACE_BOUND('',#95,.T.);
#66=FACE_BOUND('',#97,.T.);
#67=FACE_BOUND('',#98,.T.);
#68=FACE_BOUND('',#102,.T.);
#69=FACE_BOUND('',#103,.T.);
#70=ADVANCED_FACE('',(#85),#80,.T.);
#71=ADVANCED_FACE('',(#62,#63),#60,.T.);
#72=ADVANCED_FACE('',(#64,#65),#58,.T.);
#73=ADVANCED_FACE('',(#86),#81,.F.);
#74=ADVANCED_FACE('',(#66,#67),#59,.T.);
#75=ADVANCED_FACE('',(#87),#82,.T.);
#76=ADVANCED_FACE('',(#88),#83,.T.);
#77=ADVANCED_FACE('',(#89),#36,.T.);
#78=ADVANCED_FACE('',(#68,#69),#61,.T.);
#79=ADVANCED_FACE('',(#90),#84,.F.);
#80=PLANE('',#200);
#81=PLANE('',#205);
#82=PLANE('',#209);
#83=PLANE('',#210);
#84=PLANE('',#215);
#85=FACE_OUTER_BOUND('',#91,.T.);
#86=FACE_OUTER_BOUND('',#96,.T.);
#87=FACE_OUTER_BOUND('',#99,.T.);
#88=FACE_OUTER_BOUND('',#100,.T.);
#89=FACE_OUTER_BOUND('',#101,.T.);
#90=FACE_OUTER_BOUND('',#104,.T.);
#91=EDGE_LOOP('',(#105));
#92=EDGE_LOOP('',(#106));
#93=EDGE_LOOP('',(#107));
#94=EDGE_LOOP('',(#108));
#95=EDGE_LOOP('',(#109));
#96=EDGE_LOOP('',(#110));
#97=EDGE_LOOP('',(#111));
#98=EDGE_LOOP('',(#112));
#99=EDGE_LOOP('',(#113));
#100=EDGE_LOOP('',(#114));
#101=EDGE_LOOP('',(#115));
#102=EDGE_LOOP('',(#116));
#103=EDGE_LOOP('',(#117));
#104=EDGE_LOOP('',(#118));
#105=ORIENTED_EDGE('',*,*,#126,.F.);
#106=ORIENTED_EDGE('',*,*,#126,.T.);
#107=ORIENTED_EDGE('',*,*,#127,.F.);
#108=ORIENTED_EDGE('',*,*,#128,.F.);
#109=ORIENTED_EDGE('',*,*,#127,.T.);
#110=ORIENTED_EDGE('',*,*,#128,.T.);
#111=ORIENTED_EDGE('',*,*,#129,.F.);
#112=ORIENTED_EDGE('',*,*,#130,.F.);
#113=ORIENTED_EDGE('',*,*,#129,.T.);
#114=ORIENTED_EDGE('',*,*,#130,.T.);
#115=ORIENTED_EDGE('',*,*,#131,.T.);
#116=ORIENTED_EDGE('',*,*,#132,.F.);
#117=ORIENTED_EDGE('',*,*,#131,.F.);
#118=ORIENTED_EDGE('',*,*,#132,.T.);
#119=VERTEX_POINT('',#284);
#120=VERTEX_POINT('',#287);
#121=VERTEX_POINT('',#290);
#122=VERTEX_POINT('',#294);
#123=VERTEX_POINT('',#296);
#124=VERTEX_POINT('',#301);
#125=VERTEX_POINT('',#304);
#126=EDGE_CURVE('',#119,#119,#133,.T.);
#127=EDGE_CURVE('',#120,#120,#134,.T.);
#128=EDGE_CURVE('',#121,#121,#135,.T.);
#129=EDGE_CURVE('',#122,#122,#136,.T.);
#130=EDGE_CURVE('',#123,#123,#137,.T.);
#131=EDGE_CURVE('',#124,#124,#138,.T.);
#132=EDGE_CURVE('',#125,#125,#139,.T.);
#133=CIRCLE('',#199,4.45770000000001);
#134=CIRCLE('',#201,4.7625);
#135=CIRCLE('',#203,4.7625);
#136=CIRCLE('',#206,4.7625);
#137=CIRCLE('',#207,4.7625);
#138=CIRCLE('',#211,4.76249992746298);
#139=CIRCLE('',#213,4.76000643334292);
#140=CURVE_STYLE('',#146,POSITIVE_LENGTH_MEASURE(0.18),#145);
#141=CURVE_STYLE('',#147,POSITIVE_LENGTH_MEASURE(0.18),#190);
#142=CURVE_STYLE('',#148,POSITIVE_LENGTH_MEASURE(0.18),#190);
#143=CURVE_STYLE('',#149,POSITIVE_LENGTH_MEASURE(0.18),#190);
#144=CURVE_STYLE('',#150,POSITIVE_LENGTH_MEASURE(0.18),#190);
#145=DRAUGHTING_PRE_DEFINED_COLOUR('blue');
#146=DRAUGHTING_PRE_DEFINED_CURVE_FONT('continuous');
#147=DRAUGHTING_PRE_DEFINED_CURVE_FONT('continuous');
#148=DRAUGHTING_PRE_DEFINED_CURVE_FONT('continuous');
#149=DRAUGHTING_PRE_DEFINED_CURVE_FONT('continuous');
#150=DRAUGHTING_PRE_DEFINED_CURVE_FONT('continuous');
#151=TRIMMED_CURVE('CUTTING PART LINE',#152,(PARAMETER_VALUE(0.)),(
PARAMETER_VALUE(1.)),.T.,.PARAMETER.);
#152=(
BOUNDED_CURVE()
B_SPLINE_CURVE(3,(#266,#267,#268,#269,#270,#271,#272,#273,#274,#275,#276,
#277,#278),.UNSPECIFIED.,.T.,.F.)
B_SPLINE_CURVE_WITH_KNOTS((4,3,3,3,4),(0.,0.313452456259244,0.477603561913872,
0.895564479875769,1.),.UNSPECIFIED.)
CURVE()
GEOMETRIC_REPRESENTATION_ITEM()
RATIONAL_B_SPLINE_CURVE((1.,1.,1.,1.,0.804696714524456,0.804696714524456,
1.,1.,1.,1.,1.,1.,1.))
REPRESENTATION_ITEM('CUTTING PART LINE')
);
#153=PRESENTATION_LAYER_ASSIGNMENT('1','Layer 1',(#261,#262,#263,#264,#265,
#151,#195,#196,#197,#198,#52,#53,#54));
#154=STYLED_ITEM('',(#167),#261);
#155=STYLED_ITEM('',(#168),#262);
#156=STYLED_ITEM('',(#169),#263);
#157=STYLED_ITEM('',(#170),#264);
#158=STYLED_ITEM('',(#171),#265);
#159=STYLED_ITEM('',(#172),#151);
#160=STYLED_ITEM('',(#173),#195);
#161=STYLED_ITEM('',(#174),#196);
#162=STYLED_ITEM('',(#175),#197);
#163=STYLED_ITEM('',(#176),#198);
#164=STYLED_ITEM('',(#177),#52);
#165=STYLED_ITEM('',(#178),#53);
#166=STYLED_ITEM('',(#179),#54);
#167=PRESENTATION_STYLE_ASSIGNMENT((#180));
#168=PRESENTATION_STYLE_ASSIGNMENT((#181));
#169=PRESENTATION_STYLE_ASSIGNMENT((#182));
#170=PRESENTATION_STYLE_ASSIGNMENT((#183));
#171=PRESENTATION_STYLE_ASSIGNMENT((#184));
#172=PRESENTATION_STYLE_ASSIGNMENT((#140));
#173=PRESENTATION_STYLE_ASSIGNMENT((#141));
#174=PRESENTATION_STYLE_ASSIGNMENT((#142));
#175=PRESENTATION_STYLE_ASSIGNMENT((#143));
#176=PRESENTATION_STYLE_ASSIGNMENT((#144));
#177=PRESENTATION_STYLE_ASSIGNMENT((#37));
#178=PRESENTATION_STYLE_ASSIGNMENT((#38));
#179=PRESENTATION_STYLE_ASSIGNMENT((#39));
#180=POINT_STYLE('',#185,POSITIVE_LENGTH_MEASURE(3.),#190);
#181=POINT_STYLE('',#186,POSITIVE_LENGTH_MEASURE(3.),#190);
#182=POINT_STYLE('',#187,POSITIVE_LENGTH_MEASURE(3.),#190);
#183=POINT_STYLE('',#188,POSITIVE_LENGTH_MEASURE(3.),#190);
#184=POINT_STYLE('',#189,POSITIVE_LENGTH_MEASURE(3.),#191);
#185=PRE_DEFINED_POINT_MARKER_SYMBOL('plus');
#186=PRE_DEFINED_POINT_MARKER_SYMBOL('plus');
#187=PRE_DEFINED_POINT_MARKER_SYMBOL('plus');
#188=PRE_DEFINED_POINT_MARKER_SYMBOL('plus');
#189=PRE_DEFINED_POINT_MARKER_SYMBOL('plus');
#190=COLOUR_RGB('Pale Maroon',0.811749446860456,0.603921568627451,0.611749446860456);
#191=COLOUR_RGB('Medium Royal',0.2,0.4,0.8);
#192=COLOUR_RGB('Medium Gray',0.490196078431373,0.490196078431373,0.490196078431373);
#193=COLOUR_RGB('Light Gray',0.8,0.8,0.8);
#194=AXIS2_PLACEMENT_3D('',#260,#216,#217);
#195=AXIS2_PLACEMENT_3D('PCS',#279,#218,#219);
#196=AXIS2_PLACEMENT_3D('MCS',#280,#220,#221);
#197=AXIS2_PLACEMENT_3D('CIP',#281,#222,#223);
#198=AXIS2_PLACEMENT_3D('LCS',#282,#224,#225);
#199=AXIS2_PLACEMENT_3D('',#283,#226,#227);
#200=AXIS2_PLACEMENT_3D('',#285,#228,#229);
#201=AXIS2_PLACEMENT_3D('',#286,#230,#231);
#202=AXIS2_PLACEMENT_3D('',#288,#232,#233);
#203=AXIS2_PLACEMENT_3D('',#289,#234,#235);
#204=AXIS2_PLACEMENT_3D('',#291,#236,#237);
#205=AXIS2_PLACEMENT_3D('',#292,#238,#239);
#206=AXIS2_PLACEMENT_3D('',#293,#240,#241);
#207=AXIS2_PLACEMENT_3D('',#295,#242,#243);
#208=AXIS2_PLACEMENT_3D('',#297,#244,#245);
#209=AXIS2_PLACEMENT_3D('',#298,#246,#247);
#210=AXIS2_PLACEMENT_3D('',#299,#248,#249);
#211=AXIS2_PLACEMENT_3D('',#300,#250,#251);
#212=AXIS2_PLACEMENT_3D('',#302,#252,#253);
#213=AXIS2_PLACEMENT_3D('',#303,#254,#255);
#214=AXIS2_PLACEMENT_3D('',#305,#256,#257);
#215=AXIS2_PLACEMENT_3D('',#306,#258,#259);
#216=DIRECTION('',(0.,0.,1.));
#217=DIRECTION('',(1.,0.,0.));
#218=DIRECTION('',(0.,0.,1.));
#219=DIRECTION('',(1.,0.,0.));
#220=DIRECTION('',(0.,0.,1.));
#221=DIRECTION('',(1.,0.,0.));
#222=DIRECTION('',(0.,0.,1.));
#223=DIRECTION('',(1.,0.,0.));
#224=DIRECTION('',(0.,0.,1.));
#225=DIRECTION('',(1.,0.,0.));
#226=DIRECTION('',(0.,0.,-1.));
#227=DIRECTION('',(-1.,0.,0.));
#228=DIRECTION('',(0.,0.,1.));
#229=DIRECTION('',(-1.,0.,0.));
#230=DIRECTION('',(0.,0.,-1.));
#231=DIRECTION('',(-1.,0.,0.));
#232=DIRECTION('',(0.,0.,-1.));
#233=DIRECTION('',(1.,0.,4.14360243574419E-17));
#234=DIRECTION('',(0.,0.,-1.));
#235=DIRECTION('',(1.,0.,0.));
#236=DIRECTION('',(0.,0.,-1.));
#237=DIRECTION('',(1.,0.,0.));
#238=DIRECTION('',(0.,0.,1.));
#239=DIRECTION('',(-1.,0.,0.));
#240=DIRECTION('',(0.,0.,-1.));
#241=DIRECTION('',(-1.,0.,0.));
#242=DIRECTION('',(0.,0.,1.));
#243=DIRECTION('',(1.,0.,0.));
#244=DIRECTION('',(0.,0.,-1.));
#245=DIRECTION('',(1.,0.,0.));
#246=DIRECTION('',(0.,0.,-1.));
#247=DIRECTION('',(1.,0.,0.));
#248=DIRECTION('',(0.,0.,1.));
#249=DIRECTION('',(-1.,0.,0.));
#250=DIRECTION('',(0.,0.,-1.));
#251=DIRECTION('',(-1.,0.,0.));
#252=DIRECTION('',(-3.69778549322349E-32,0.,-1.));
#253=DIRECTION('',(1.,0.,0.));
#254=DIRECTION('',(0.,0.,1.));
#255=DIRECTION('',(-1.,0.,0.));
#256=DIRECTION('',(0.,0.,-1.));
#257=DIRECTION('',(1.,0.,-1.40547857559304E-15));
#258=DIRECTION('',(0.,0.,-1.));
#259=DIRECTION('',(1.,0.,0.));
#260=CARTESIAN_POINT('',(0.,0.,0.));
#261=CARTESIAN_POINT('',(0.,0.,40.));
#262=CARTESIAN_POINT('',(0.,0.,0.));
#263=CARTESIAN_POINT('',(0.,0.,-23.5));
#264=CARTESIAN_POINT('',(0.,0.,40.));
#265=CARTESIAN_POINT('CRP',(-4.7625,0.,-23.5));
#266=CARTESIAN_POINT('',(-4.76000643334292,0.,-4.45000000000206));
#267=CARTESIAN_POINT('',(-4.7608375980496,0.,-9.21222292898468));
#268=CARTESIAN_POINT('',(-4.76166876275629,0.,-13.9744458579673));
#269=CARTESIAN_POINT('',(-4.76249992746298,0.,-18.7366687869489));
#270=CARTESIAN_POINT('',(-4.7629869081803,0.,-21.5268627392673));
#271=CARTESIAN_POINT('',(-2.79019399481651,0.,-23.5));
#272=CARTESIAN_POINT('',(-2.91619019046964E-16,0.,-23.5));
#273=CARTESIAN_POINT('',(0.,0.,-17.15));
#274=CARTESIAN_POINT('',(0.,0.,-10.8));
#275=CARTESIAN_POINT('',(0.,0.,-4.45));
#276=CARTESIAN_POINT('',(-1.58666881111431,0.,-4.45));
#277=CARTESIAN_POINT('',(-3.17333762222861,0.,-4.45));
#278=CARTESIAN_POINT('',(-4.76000643334292,0.,-4.45));
#279=CARTESIAN_POINT('',(0.,0.,40.));
#280=CARTESIAN_POINT('',(0.,0.,0.));
#281=CARTESIAN_POINT('',(0.,0.,-23.5));
#282=CARTESIAN_POINT('',(0.,0.,40.));
#283=CARTESIAN_POINT('',(0.,0.,40.));
#284=CARTESIAN_POINT('',(-4.45770000000001,0.,40.));
#285=CARTESIAN_POINT('',(4.45770000000001,0.,40.));
#286=CARTESIAN_POINT('',(0.,0.,39.6952));
#287=CARTESIAN_POINT('',(-4.7625,0.,39.6952));
#288=CARTESIAN_POINT('',(0.,0.,39.6952));
#289=CARTESIAN_POINT('',(0.,0.,0.));
#290=CARTESIAN_POINT('',(4.7625,0.,0.));
#291=CARTESIAN_POINT('',(0.,0.,0.));
#292=CARTESIAN_POINT('',(0.,0.,0.));
#293=CARTESIAN_POINT('',(0.,0.,-4.44999956479053));
#294=CARTESIAN_POINT('',(-4.7625,0.,-4.44999956479053));
#295=CARTESIAN_POINT('',(0.,0.,0.));
#296=CARTESIAN_POINT('',(4.7625,0.,0.));
#297=CARTESIAN_POINT('',(0.,0.,0.));
#298=CARTESIAN_POINT('',(4.76000643334292,0.,-4.44999978239527));
#299=CARTESIAN_POINT('',(0.,0.,0.));
#300=CARTESIAN_POINT('',(0.,0.,-18.7366687869479));
#301=CARTESIAN_POINT('',(-4.76249992746298,0.,-18.7366687869479));
#302=CARTESIAN_POINT('',(0.,0.,-18.7375));
#303=CARTESIAN_POINT('',(0.,0.,-4.45));
#304=CARTESIAN_POINT('',(-4.76000643334292,0.,-4.45));
#305=CARTESIAN_POINT('',(0.,0.,-18.7366687869479));
#306=CARTESIAN_POINT('',(0.,0.,-4.45));
#307=MECHANICAL_DESIGN_GEOMETRIC_PRESENTATION_REPRESENTATION('',(#154,#155,
#156,#157,#158,#159,#160,#161,#162,#163,#164,#165,#166),#308);
#308=(
GEOMETRIC_REPRESENTATION_CONTEXT(3)
GLOBAL_UNCERTAINTY_ASSIGNED_CONTEXT((#309))
GLOBAL_UNIT_ASSIGNED_CONTEXT((#315,#311,#310))
REPRESENTATION_CONTEXT('STB440.2.375D2B','TOP_LEVEL_ASSEMBLY_PART')
);
#309=UNCERTAINTY_MEASURE_WITH_UNIT(LENGTH_MEASURE(2.E-5),#315,
'DISTANCE_ACCURACY_VALUE','Maximum Tolerance applied to model');
#310=(
NAMED_UNIT(*)
SI_UNIT($,.STERADIAN.)
SOLID_ANGLE_UNIT()
);
#311=(
CONVERSION_BASED_UNIT('DEGREE',#313)
NAMED_UNIT(#312)
PLANE_ANGLE_UNIT()
);
#312=DIMENSIONAL_EXPONENTS(0.,0.,0.,0.,0.,0.,0.);
#313=PLANE_ANGLE_MEASURE_WITH_UNIT(PLANE_ANGLE_MEASURE(0.0174532925),#314);
#314=(
NAMED_UNIT(*)
PLANE_ANGLE_UNIT()
SI_UNIT($,.RADIAN.)
);
#315=(
LENGTH_UNIT()
NAMED_UNIT(*)
SI_UNIT(.MILLI.,.METRE.)
);
ENDSEC;
END-ISO-10303-21;
