ISO-10303-21;
HEADER;
/* Generated by software containing ST-Developer
 * from STEP Tools, Inc. (www.steptools.com) 
 */
/* OPTION: using custom schema-name function */

FILE_DESCRIPTION(
/* description */ (''),
/* implementation_level */ '2;1');

FILE_NAME(
/* name */ 'SCS638R.375D2R030.0Z6_Basic.stp',
/* time_stamp */ '2022-03-02T12:52:12+05:00',
/* author */ (''),
/* organization */ (''),
/* preprocessor_version */ 'ST-DEVELOPER v16.7',
/* originating_system */ 'SIEMENS PLM Software NX 12.0',
/* authorisation */ '');

FILE_SCHEMA (('AUTOMOTIVE_DESIGN { 1 0 10303 214 3 1 1 1 }'));
ENDSEC;

DATA;
#10=CONSTRUCTIVE_GEOMETRY_REPRESENTATION_RELATIONSHIP(
'supplemental geometry','',#34,#11);
#11=CONSTRUCTIVE_GEOMETRY_REPRESENTATION('supplemental geometry',(#168,
#169,#170),#267);
#12=GEOMETRICALLY_BOUNDED_WIREFRAME_SHAPE_REPRESENTATION(
'SCS638R.375D2R030.0Z6_Basic-None',(#35),#267);
#13=PROPERTY_DEFINITION_REPRESENTATION(#17,#15);
#14=PROPERTY_DEFINITION_REPRESENTATION(#18,#16);
#15=REPRESENTATION('',(#19),#267);
#16=REPRESENTATION('',(#20),#267);
#17=PROPERTY_DEFINITION('pmi validation property','',#25);
#18=PROPERTY_DEFINITION('pmi validation property','',#25);
#19=VALUE_REPRESENTATION_ITEM('number of annotations',COUNT_MEASURE(0.));
#20=VALUE_REPRESENTATION_ITEM('number of views',COUNT_MEASURE(0.));
#21=SHAPE_REPRESENTATION_RELATIONSHIP('None',
'relationship between SCS638R.375D2R030.0Z6_Basic-None and SCS638R.375
D2R030.0Z6_Basic-None',#34,#23);
#22=SHAPE_REPRESENTATION_RELATIONSHIP('None',
'relationship between SCS638R.375D2R030.0Z6_Basic-None and SCS638R.375
D2R030.0Z6_Basic-None',#34,#12);
#23=ADVANCED_BREP_SHAPE_REPRESENTATION(
'SCS638R.375D2R030.0Z6_Basic-None',(#48,#49),#267);
#24=SHAPE_DEFINITION_REPRESENTATION(#25,#34);
#25=PRODUCT_DEFINITION_SHAPE('','',#26);
#26=PRODUCT_DEFINITION(' ','',#28,#27);
#27=PRODUCT_DEFINITION_CONTEXT('part definition',#33,'design');
#28=PRODUCT_DEFINITION_FORMATION_WITH_SPECIFIED_SOURCE(' ',' ',#30,
 .NOT_KNOWN.);
#29=PRODUCT_RELATED_PRODUCT_CATEGORY('part','',(#30));
#30=PRODUCT('inpu0964B760k3ui','inpu0964B760k3ui',' ',(#31));
#31=PRODUCT_CONTEXT(' ',#33,'mechanical');
#32=APPLICATION_PROTOCOL_DEFINITION('international standard',
'automotive_design',2010,#33);
#33=APPLICATION_CONTEXT(
'core data for automotive mechanical design processes');
#34=SHAPE_REPRESENTATION('SCS638R.375D2R030.0Z6_Basic-None',(#167),#267);
#35=GEOMETRIC_CURVE_SET('None',(#222,#223,#224,#225,#132));
#36=TOROIDAL_SURFACE('',#181,4.0005,0.762000000000019);
#37=VERTEX_LOOP('',#108);
#38=SURFACE_STYLE_USAGE(.BOTH.,#40);
#39=SURFACE_STYLE_USAGE(.BOTH.,#41);
#40=SURFACE_SIDE_STYLE('',(#42));
#41=SURFACE_SIDE_STYLE('',(#43));
#42=SURFACE_STYLE_FILL_AREA(#44);
#43=SURFACE_STYLE_FILL_AREA(#45);
#44=FILL_AREA_STYLE('',(#46));
#45=FILL_AREA_STYLE('',(#47));
#46=FILL_AREA_STYLE_COLOUR('',#165);
#47=FILL_AREA_STYLE_COLOUR('',#166);
#48=MANIFOLD_SOLID_BREP('NOCUT',#50);
#49=MANIFOLD_SOLID_BREP('CUT',#51);
#50=CLOSED_SHELL('',(#59,#60,#61,#62));
#51=CLOSED_SHELL('',(#63,#64,#65,#66));
#52=CYLINDRICAL_SURFACE('',#177,4.7625);
#53=PLANE('',#174);
#54=PLANE('',#176);
#55=PLANE('',#184);
#56=FACE_OUTER_BOUND('',#82,.T.);
#57=FACE_OUTER_BOUND('',#83,.T.);
#58=FACE_OUTER_BOUND('',#91,.T.);
#59=ADVANCED_FACE('',(#70,#71),#67,.T.);
#60=ADVANCED_FACE('',(#56),#53,.T.);
#61=ADVANCED_FACE('',(#57),#54,.T.);
#62=ADVANCED_FACE('',(#72,#73),#52,.T.);
#63=ADVANCED_FACE('',(#74,#75),#68,.F.);
#64=ADVANCED_FACE('',(#76,#77),#36,.T.);
#65=ADVANCED_FACE('',(#78,#79),#69,.T.);
#66=ADVANCED_FACE('',(#58),#55,.F.);
#67=CONICAL_SURFACE('',#173,4.76249999999999,45.0000000000007);
#68=CONICAL_SURFACE('',#179,3.54027532852546E-15,87.5000000000001);
#69=CONICAL_SURFACE('',#183,4.76249998839409,0.0100000000000531);
#70=FACE_BOUND('',#80,.T.);
#71=FACE_BOUND('',#81,.T.);
#72=FACE_BOUND('',#84,.T.);
#73=FACE_BOUND('',#85,.T.);
#74=FACE_BOUND('',#86,.T.);
#75=FACE_BOUND('',#37,.T.);
#76=FACE_BOUND('',#87,.T.);
#77=FACE_BOUND('',#88,.T.);
#78=FACE_BOUND('',#89,.T.);
#79=FACE_BOUND('',#90,.T.);
#80=EDGE_LOOP('',(#92));
#81=EDGE_LOOP('',(#93));
#82=EDGE_LOOP('',(#94));
#83=EDGE_LOOP('',(#95));
#84=EDGE_LOOP('',(#96));
#85=EDGE_LOOP('',(#97));
#86=EDGE_LOOP('',(#98));
#87=EDGE_LOOP('',(#99));
#88=EDGE_LOOP('',(#100));
#89=EDGE_LOOP('',(#101));
#90=EDGE_LOOP('',(#102));
#91=EDGE_LOOP('',(#103));
#92=ORIENTED_EDGE('',*,*,#111,.T.);
#93=ORIENTED_EDGE('',*,*,#112,.F.);
#94=ORIENTED_EDGE('',*,*,#111,.F.);
#95=ORIENTED_EDGE('',*,*,#113,.T.);
#96=ORIENTED_EDGE('',*,*,#112,.T.);
#97=ORIENTED_EDGE('',*,*,#113,.F.);
#98=ORIENTED_EDGE('',*,*,#114,.T.);
#99=ORIENTED_EDGE('',*,*,#115,.T.);
#100=ORIENTED_EDGE('',*,*,#114,.F.);
#101=ORIENTED_EDGE('',*,*,#116,.T.);
#102=ORIENTED_EDGE('',*,*,#115,.F.);
#103=ORIENTED_EDGE('',*,*,#116,.F.);
#104=VERTEX_POINT('',#246);
#105=VERTEX_POINT('',#248);
#106=VERTEX_POINT('',#252);
#107=VERTEX_POINT('',#256);
#108=VERTEX_POINT('',#257);
#109=VERTEX_POINT('',#260);
#110=VERTEX_POINT('',#263);
#111=EDGE_CURVE('',#104,#104,#117,.T.);
#112=EDGE_CURVE('',#105,#105,#118,.T.);
#113=EDGE_CURVE('',#106,#106,#119,.T.);
#114=EDGE_CURVE('',#107,#107,#120,.T.);
#115=EDGE_CURVE('',#109,#109,#121,.T.);
#116=EDGE_CURVE('',#110,#110,#122,.T.);
#117=CIRCLE('',#171,4.45769999999999);
#118=CIRCLE('',#172,4.76249999999999);
#119=CIRCLE('',#175,4.7625);
#120=CIRCLE('',#178,3.96726202682761);
#121=CIRCLE('',#180,4.76249998839409);
#122=CIRCLE('',#182,4.75875401139433);
#123=CURVE_STYLE('',#128,POSITIVE_LENGTH_MEASURE(0.18),#127);
#124=CURVE_STYLE('',#129,POSITIVE_LENGTH_MEASURE(0.18),#163);
#125=CURVE_STYLE('',#130,POSITIVE_LENGTH_MEASURE(0.18),#163);
#126=CURVE_STYLE('',#131,POSITIVE_LENGTH_MEASURE(0.18),#163);
#127=DRAUGHTING_PRE_DEFINED_COLOUR('blue');
#128=DRAUGHTING_PRE_DEFINED_CURVE_FONT('continuous');
#129=DRAUGHTING_PRE_DEFINED_CURVE_FONT('continuous');
#130=DRAUGHTING_PRE_DEFINED_CURVE_FONT('continuous');
#131=DRAUGHTING_PRE_DEFINED_CURVE_FONT('continuous');
#132=TRIMMED_CURVE('CUTTING PART LINE',#133,(PARAMETER_VALUE(0.)),(
PARAMETER_VALUE(1.)),.T.,.PARAMETER.);
#133=(
BOUNDED_CURVE()
B_SPLINE_CURVE(3,(#226,#227,#228,#229,#230,#231,#232,#233,#234,#235,#236,
#237,#238,#239,#240,#241),.UNSPECIFIED.,.T.,.F.)
B_SPLINE_CURVE_WITH_KNOTS((4,3,3,3,3,4),(0.,0.401369761541359,0.424377711768849,
0.498638805903157,0.911008164327115,1.),.UNSPECIFIED.)
CURVE()
GEOMETRIC_REPRESENTATION_ITEM()
RATIONAL_B_SPLINE_CURVE((1.,1.,1.,1.,0.794300010001051,0.794300010001051,
1.,1.,1.,1.,1.,1.,1.,1.,1.,1.))
REPRESENTATION_ITEM('CUTTING PART LINE')
);
#134=PRESENTATION_LAYER_ASSIGNMENT('1','Layer 1',(#222,#223,#224,#225,#132,
#168,#169,#170,#48,#49));
#135=STYLED_ITEM('',(#145),#222);
#136=STYLED_ITEM('',(#146),#223);
#137=STYLED_ITEM('',(#147),#224);
#138=STYLED_ITEM('',(#148),#225);
#139=STYLED_ITEM('',(#149),#132);
#140=STYLED_ITEM('',(#150),#168);
#141=STYLED_ITEM('',(#151),#169);
#142=STYLED_ITEM('',(#152),#170);
#143=STYLED_ITEM('',(#153),#48);
#144=STYLED_ITEM('',(#154),#49);
#145=PRESENTATION_STYLE_ASSIGNMENT((#155));
#146=PRESENTATION_STYLE_ASSIGNMENT((#156));
#147=PRESENTATION_STYLE_ASSIGNMENT((#157));
#148=PRESENTATION_STYLE_ASSIGNMENT((#158));
#149=PRESENTATION_STYLE_ASSIGNMENT((#123));
#150=PRESENTATION_STYLE_ASSIGNMENT((#124));
#151=PRESENTATION_STYLE_ASSIGNMENT((#125));
#152=PRESENTATION_STYLE_ASSIGNMENT((#126));
#153=PRESENTATION_STYLE_ASSIGNMENT((#38));
#154=PRESENTATION_STYLE_ASSIGNMENT((#39));
#155=POINT_STYLE('',#159,POSITIVE_LENGTH_MEASURE(3.),#163);
#156=POINT_STYLE('',#160,POSITIVE_LENGTH_MEASURE(3.),#163);
#157=POINT_STYLE('',#161,POSITIVE_LENGTH_MEASURE(3.),#163);
#158=POINT_STYLE('',#162,POSITIVE_LENGTH_MEASURE(3.),#164);
#159=PRE_DEFINED_POINT_MARKER_SYMBOL('plus');
#160=PRE_DEFINED_POINT_MARKER_SYMBOL('plus');
#161=PRE_DEFINED_POINT_MARKER_SYMBOL('plus');
#162=PRE_DEFINED_POINT_MARKER_SYMBOL('plus');
#163=COLOUR_RGB('Pale Maroon',0.811749446860456,0.603921568627451,0.611749446860456);
#164=COLOUR_RGB('Medium Royal',0.2,0.4,0.8);
#165=COLOUR_RGB('Medium Gray',0.490196078431373,0.490196078431373,0.490196078431373);
#166=COLOUR_RGB('Light Gray',0.8,0.8,0.8);
#167=AXIS2_PLACEMENT_3D('',#221,#185,#186);
#168=AXIS2_PLACEMENT_3D('PCS',#242,#187,#188);
#169=AXIS2_PLACEMENT_3D('MCS',#243,#189,#190);
#170=AXIS2_PLACEMENT_3D('CIP',#244,#191,#192);
#171=AXIS2_PLACEMENT_3D('',#245,#193,#194);
#172=AXIS2_PLACEMENT_3D('',#247,#195,#196);
#173=AXIS2_PLACEMENT_3D('',#249,#197,#198);
#174=AXIS2_PLACEMENT_3D('',#250,#199,#200);
#175=AXIS2_PLACEMENT_3D('',#251,#201,#202);
#176=AXIS2_PLACEMENT_3D('',#253,#203,#204);
#177=AXIS2_PLACEMENT_3D('',#254,#205,#206);
#178=AXIS2_PLACEMENT_3D('',#255,#207,#208);
#179=AXIS2_PLACEMENT_3D('',#258,#209,#210);
#180=AXIS2_PLACEMENT_3D('',#259,#211,#212);
#181=AXIS2_PLACEMENT_3D('',#261,#213,#214);
#182=AXIS2_PLACEMENT_3D('',#262,#215,#216);
#183=AXIS2_PLACEMENT_3D('',#264,#217,#218);
#184=AXIS2_PLACEMENT_3D('',#265,#219,#220);
#185=DIRECTION('',(0.,0.,1.));
#186=DIRECTION('',(1.,0.,0.));
#187=DIRECTION('',(0.,0.,1.));
#188=DIRECTION('',(1.,0.,0.));
#189=DIRECTION('',(0.,0.,1.));
#190=DIRECTION('',(1.,0.,0.));
#191=DIRECTION('',(0.,0.,1.));
#192=DIRECTION('',(1.,0.,0.));
#193=DIRECTION('',(0.,0.,-1.));
#194=DIRECTION('',(-1.,0.,0.));
#195=DIRECTION('',(0.,0.,-1.));
#196=DIRECTION('',(-1.,0.,0.));
#197=DIRECTION('',(0.,0.,-1.));
#198=DIRECTION('',(1.,0.,-6.90600405957334E-18));
#199=DIRECTION('',(0.,0.,1.));
#200=DIRECTION('',(-1.,0.,0.));
#201=DIRECTION('',(0.,0.,-1.));
#202=DIRECTION('',(-1.,0.,0.));
#203=DIRECTION('',(0.,0.,-1.));
#204=DIRECTION('',(1.,0.,0.));
#205=DIRECTION('',(0.,0.,-1.));
#206=DIRECTION('',(1.,0.,0.));
#207=DIRECTION('',(0.,0.,-1.));
#208=DIRECTION('',(-1.,0.,0.));
#209=DIRECTION('',(0.,0.,-1.));
#210=DIRECTION('',(1.,0.,0.));
#211=DIRECTION('',(0.,0.,-1.));
#212=DIRECTION('',(-1.,0.,0.));
#213=DIRECTION('',(0.,0.,-1.));
#214=DIRECTION('',(1.,0.,0.));
#215=DIRECTION('',(0.,0.,-1.));
#216=DIRECTION('',(-1.,0.,0.));
#217=DIRECTION('',(0.,0.,-1.));
#218=DIRECTION('',(1.,0.,9.83834990772863E-15));
#219=DIRECTION('',(0.,0.,-1.));
#220=DIRECTION('',(1.,0.,0.));
#221=CARTESIAN_POINT('',(0.,0.,0.));
#222=CARTESIAN_POINT('',(0.,0.,53.975));
#223=CARTESIAN_POINT('',(0.,0.,0.));
#224=CARTESIAN_POINT('',(0.,0.,-22.225));
#225=CARTESIAN_POINT('CRP',(-4.7625,0.,-22.22427474485));
#226=CARTESIAN_POINT('',(-4.75875401139433,0.,-3.5527136788005E-12));
#227=CARTESIAN_POINT('',(-4.76000267039425,0.,-7.15428900197423));
#228=CARTESIAN_POINT('',(-4.76125132939417,0.,-14.3085780039449));
#229=CARTESIAN_POINT('',(-4.76249998839409,0.,-21.4628670059136));
#230=CARTESIAN_POINT('',(-4.76258062808577,0.,-21.9248984006428));
#231=CARTESIAN_POINT('',(-4.42885367707918,0.,-22.2444282715341));
#232=CARTESIAN_POINT('',(-3.96726202682761,0.,-22.2242747448454));
#233=CARTESIAN_POINT('',(-2.64484135121841,0.,-22.1665366112266));
#234=CARTESIAN_POINT('',(-1.32242067560921,0.,-22.1087984776078));
#235=CARTESIAN_POINT('',(-1.77635683940025E-15,0.,-22.051060343989));
#236=CARTESIAN_POINT('',(0.,0.,-14.7007068959926));
#237=CARTESIAN_POINT('',(0.,0.,-7.35035344799632));
#238=CARTESIAN_POINT('',(0.,0.,0.));
#239=CARTESIAN_POINT('',(-1.58625133713144,0.,0.));
#240=CARTESIAN_POINT('',(-3.17250267426289,0.,0.));
#241=CARTESIAN_POINT('',(-4.75875401139433,0.,0.));
#242=CARTESIAN_POINT('',(0.,0.,53.975));
#243=CARTESIAN_POINT('',(0.,0.,0.));
#244=CARTESIAN_POINT('',(0.,0.,-22.225));
#245=CARTESIAN_POINT('',(0.,0.,53.975));
#246=CARTESIAN_POINT('',(-4.45769999999999,0.,53.975));
#247=CARTESIAN_POINT('',(0.,0.,53.6702));
#248=CARTESIAN_POINT('',(-4.76249999999999,0.,53.6702));
#249=CARTESIAN_POINT('',(0.,0.,53.6702));
#250=CARTESIAN_POINT('',(4.45769999999999,0.,53.975));
#251=CARTESIAN_POINT('',(0.,0.,0.));
#252=CARTESIAN_POINT('',(-4.7625,0.,0.));
#253=CARTESIAN_POINT('',(4.75875401139433,0.,0.));
#254=CARTESIAN_POINT('',(0.,0.,-14.2875));
#255=CARTESIAN_POINT('',(0.,0.,-22.2242747448454));
#256=CARTESIAN_POINT('',(-3.96726202682761,0.,-22.2242747448454));
#257=CARTESIAN_POINT('',(-3.54027532852546E-15,0.,-22.051060343989));
#258=CARTESIAN_POINT('',(0.,0.,-22.051060343989));
#259=CARTESIAN_POINT('',(0.,0.,-21.4628670059117));
#260=CARTESIAN_POINT('',(-4.76249998839409,0.,-21.4628670059117));
#261=CARTESIAN_POINT('',(0.,0.,-21.463));
#262=CARTESIAN_POINT('',(0.,0.,0.));
#263=CARTESIAN_POINT('',(-4.75875401139433,0.,0.));
#264=CARTESIAN_POINT('',(0.,0.,-21.4628670059117));
#265=CARTESIAN_POINT('',(0.,0.,0.));
#266=MECHANICAL_DESIGN_GEOMETRIC_PRESENTATION_REPRESENTATION('',(#135,#136,
#137,#138,#139,#140,#141,#142,#143,#144),#267);
#267=(
GEOMETRIC_REPRESENTATION_CONTEXT(3)
GLOBAL_UNCERTAINTY_ASSIGNED_CONTEXT((#268))
GLOBAL_UNIT_ASSIGNED_CONTEXT((#274,#270,#269))
REPRESENTATION_CONTEXT('SCS638R.375D2R030','TOP_LEVEL_ASSEMBLY_PART')
);
#268=UNCERTAINTY_MEASURE_WITH_UNIT(LENGTH_MEASURE(2.E-5),#274,
'DISTANCE_ACCURACY_VALUE','Maximum Tolerance applied to model');
#269=(
NAMED_UNIT(*)
SI_UNIT($,.STERADIAN.)
SOLID_ANGLE_UNIT()
);
#270=(
CONVERSION_BASED_UNIT('DEGREE',#272)
NAMED_UNIT(#271)
PLANE_ANGLE_UNIT()
);
#271=DIMENSIONAL_EXPONENTS(0.,0.,0.,0.,0.,0.,0.);
#272=PLANE_ANGLE_MEASURE_WITH_UNIT(PLANE_ANGLE_MEASURE(0.0174532925),#273);
#273=(
NAMED_UNIT(*)
PLANE_ANGLE_UNIT()
SI_UNIT($,.RADIAN.)
);
#274=(
LENGTH_UNIT()
NAMED_UNIT(*)
SI_UNIT(.MILLI.,.METRE.)
);
ENDSEC;
END-ISO-10303-21;
