ISO-10303-21;
HEADER;
/* Generated by software containing ST-Developer
 * from STEP Tools, Inc. (www.steptools.com) 
 */
/* OPTION: using custom schema-name function */

FILE_DESCRIPTION(
/* description */ (''),
/* implementation_level */ '2;1');

FILE_NAME(
/* name */ 'SCS638R.250D3R015.0Z6_Basic.stp',
/* time_stamp */ '2022-03-02T12:52:12+05:00',
/* author */ (''),
/* organization */ (''),
/* preprocessor_version */ 'ST-DEVELOPER v16.7',
/* originating_system */ 'SIEMENS PLM Software NX 12.0',
/* authorisation */ '');

FILE_SCHEMA (('AUTOMOTIVE_DESIGN { 1 0 10303 214 3 1 1 1 }'));
ENDSEC;

DATA;
#10=CONSTRUCTIVE_GEOMETRY_REPRESENTATION_RELATIONSHIP(
'supplemental geometry','',#34,#11);
#11=CONSTRUCTIVE_GEOMETRY_REPRESENTATION('supplemental geometry',(#203,
#204,#205),#324);
#12=GEOMETRICALLY_BOUNDED_WIREFRAME_SHAPE_REPRESENTATION(
'SCS638R.250D3R015.0Z6_Basic-None',(#35),#324);
#13=PROPERTY_DEFINITION_REPRESENTATION(#17,#15);
#14=PROPERTY_DEFINITION_REPRESENTATION(#18,#16);
#15=REPRESENTATION('',(#19),#324);
#16=REPRESENTATION('',(#20),#324);
#17=PROPERTY_DEFINITION('pmi validation property','',#25);
#18=PROPERTY_DEFINITION('pmi validation property','',#25);
#19=VALUE_REPRESENTATION_ITEM('number of annotations',COUNT_MEASURE(0.));
#20=VALUE_REPRESENTATION_ITEM('number of views',COUNT_MEASURE(0.));
#21=SHAPE_REPRESENTATION_RELATIONSHIP('None',
'relationship between SCS638R.250D3R015.0Z6_Basic-None and SCS638R.250
D3R015.0Z6_Basic-None',#34,#23);
#22=SHAPE_REPRESENTATION_RELATIONSHIP('None',
'relationship between SCS638R.250D3R015.0Z6_Basic-None and SCS638R.250
D3R015.0Z6_Basic-None',#34,#12);
#23=ADVANCED_BREP_SHAPE_REPRESENTATION(
'SCS638R.250D3R015.0Z6_Basic-None',(#53,#54,#55),#324);
#24=SHAPE_DEFINITION_REPRESENTATION(#25,#34);
#25=PRODUCT_DEFINITION_SHAPE('','',#26);
#26=PRODUCT_DEFINITION(' ','',#28,#27);
#27=PRODUCT_DEFINITION_CONTEXT('part definition',#33,'design');
#28=PRODUCT_DEFINITION_FORMATION_WITH_SPECIFIED_SOURCE(' ',' ',#30,
 .NOT_KNOWN.);
#29=PRODUCT_RELATED_PRODUCT_CATEGORY('part','',(#30));
#30=PRODUCT('inpu0964B760k3tx','inpu0964B760k3tx',' ',(#31));
#31=PRODUCT_CONTEXT(' ',#33,'mechanical');
#32=APPLICATION_PROTOCOL_DEFINITION('international standard',
'automotive_design',2010,#33);
#33=APPLICATION_CONTEXT(
'core data for automotive mechanical design processes');
#34=SHAPE_REPRESENTATION('SCS638R.250D3R015.0Z6_Basic-None',(#202),#324);
#35=GEOMETRIC_CURVE_SET('None',(#272,#273,#274,#275,#163));
#36=TOROIDAL_SURFACE('',#221,2.794,0.381000000000002);
#37=VERTEX_LOOP('',#135);
#38=SURFACE_STYLE_USAGE(.BOTH.,#41);
#39=SURFACE_STYLE_USAGE(.BOTH.,#42);
#40=SURFACE_STYLE_USAGE(.BOTH.,#43);
#41=SURFACE_SIDE_STYLE('',(#44));
#42=SURFACE_SIDE_STYLE('',(#45));
#43=SURFACE_SIDE_STYLE('',(#46));
#44=SURFACE_STYLE_FILL_AREA(#47);
#45=SURFACE_STYLE_FILL_AREA(#48);
#46=SURFACE_STYLE_FILL_AREA(#49);
#47=FILL_AREA_STYLE('',(#50));
#48=FILL_AREA_STYLE('',(#51));
#49=FILL_AREA_STYLE('',(#52));
#50=FILL_AREA_STYLE_COLOUR('',#200);
#51=FILL_AREA_STYLE_COLOUR('',#200);
#52=FILL_AREA_STYLE_COLOUR('',#201);
#53=MANIFOLD_SOLID_BREP('NOCUT',#56);
#54=MANIFOLD_SOLID_BREP('NOCUT',#57);
#55=MANIFOLD_SOLID_BREP('CUT',#58);
#56=CLOSED_SHELL('',(#76,#77,#78,#79));
#57=CLOSED_SHELL('',(#80,#81,#82));
#58=CLOSED_SHELL('',(#83,#84,#85,#86));
#59=CYLINDRICAL_SURFACE('',#211,3.175);
#60=CYLINDRICAL_SURFACE('',#215,3.175);
#61=CONICAL_SURFACE('',#209,3.175,45.0000000000005);
#62=CONICAL_SURFACE('',#219,2.09698539651276E-15,87.5);
#63=CONICAL_SURFACE('',#223,3.17499999419704,0.0100000000000095);
#64=FACE_BOUND('',#98,.T.);
#65=FACE_BOUND('',#99,.T.);
#66=FACE_BOUND('',#100,.T.);
#67=FACE_BOUND('',#101,.T.);
#68=FACE_BOUND('',#103,.T.);
#69=FACE_BOUND('',#104,.T.);
#70=FACE_BOUND('',#107,.T.);
#71=FACE_BOUND('',#37,.T.);
#72=FACE_BOUND('',#108,.T.);
#73=FACE_BOUND('',#109,.T.);
#74=FACE_BOUND('',#110,.T.);
#75=FACE_BOUND('',#111,.T.);
#76=ADVANCED_FACE('',(#92),#87,.T.);
#77=ADVANCED_FACE('',(#64,#65),#61,.T.);
#78=ADVANCED_FACE('',(#66,#67),#59,.T.);
#79=ADVANCED_FACE('',(#93),#88,.F.);
#80=ADVANCED_FACE('',(#68,#69),#60,.T.);
#81=ADVANCED_FACE('',(#94),#89,.T.);
#82=ADVANCED_FACE('',(#95),#90,.T.);
#83=ADVANCED_FACE('',(#70,#71),#62,.F.);
#84=ADVANCED_FACE('',(#72,#73),#36,.T.);
#85=ADVANCED_FACE('',(#74,#75),#63,.T.);
#86=ADVANCED_FACE('',(#96),#91,.F.);
#87=PLANE('',#207);
#88=PLANE('',#212);
#89=PLANE('',#216);
#90=PLANE('',#217);
#91=PLANE('',#224);
#92=FACE_OUTER_BOUND('',#97,.T.);
#93=FACE_OUTER_BOUND('',#102,.T.);
#94=FACE_OUTER_BOUND('',#105,.T.);
#95=FACE_OUTER_BOUND('',#106,.T.);
#96=FACE_OUTER_BOUND('',#112,.T.);
#97=EDGE_LOOP('',(#113));
#98=EDGE_LOOP('',(#114));
#99=EDGE_LOOP('',(#115));
#100=EDGE_LOOP('',(#116));
#101=EDGE_LOOP('',(#117));
#102=EDGE_LOOP('',(#118));
#103=EDGE_LOOP('',(#119));
#104=EDGE_LOOP('',(#120));
#105=EDGE_LOOP('',(#121));
#106=EDGE_LOOP('',(#122));
#107=EDGE_LOOP('',(#123));
#108=EDGE_LOOP('',(#124));
#109=EDGE_LOOP('',(#125));
#110=EDGE_LOOP('',(#126));
#111=EDGE_LOOP('',(#127));
#112=EDGE_LOOP('',(#128));
#113=ORIENTED_EDGE('',*,*,#138,.F.);
#114=ORIENTED_EDGE('',*,*,#138,.T.);
#115=ORIENTED_EDGE('',*,*,#139,.F.);
#116=ORIENTED_EDGE('',*,*,#140,.T.);
#117=ORIENTED_EDGE('',*,*,#139,.T.);
#118=ORIENTED_EDGE('',*,*,#140,.F.);
#119=ORIENTED_EDGE('',*,*,#141,.F.);
#120=ORIENTED_EDGE('',*,*,#142,.T.);
#121=ORIENTED_EDGE('',*,*,#141,.T.);
#122=ORIENTED_EDGE('',*,*,#142,.F.);
#123=ORIENTED_EDGE('',*,*,#143,.T.);
#124=ORIENTED_EDGE('',*,*,#144,.T.);
#125=ORIENTED_EDGE('',*,*,#143,.F.);
#126=ORIENTED_EDGE('',*,*,#145,.T.);
#127=ORIENTED_EDGE('',*,*,#144,.F.);
#128=ORIENTED_EDGE('',*,*,#145,.F.);
#129=VERTEX_POINT('',#296);
#130=VERTEX_POINT('',#299);
#131=VERTEX_POINT('',#302);
#132=VERTEX_POINT('',#306);
#133=VERTEX_POINT('',#308);
#134=VERTEX_POINT('',#313);
#135=VERTEX_POINT('',#314);
#136=VERTEX_POINT('',#317);
#137=VERTEX_POINT('',#320);
#138=EDGE_CURVE('',#129,#129,#146,.T.);
#139=EDGE_CURVE('',#130,#130,#147,.T.);
#140=EDGE_CURVE('',#131,#131,#148,.T.);
#141=EDGE_CURVE('',#132,#132,#149,.T.);
#142=EDGE_CURVE('',#133,#133,#150,.T.);
#143=EDGE_CURVE('',#134,#134,#151,.T.);
#144=EDGE_CURVE('',#136,#136,#152,.T.);
#145=EDGE_CURVE('',#137,#137,#153,.T.);
#146=CIRCLE('',#206,2.8702);
#147=CIRCLE('',#208,3.175);
#148=CIRCLE('',#210,3.175);
#149=CIRCLE('',#213,3.175);
#150=CIRCLE('',#214,3.175);
#151=CIRCLE('',#218,2.77738101341381);
#152=CIRCLE('',#220,3.17499999419704);
#153=CIRCLE('',#222,3.17229579263246);
#154=CURVE_STYLE('',#159,POSITIVE_LENGTH_MEASURE(0.18),#158);
#155=CURVE_STYLE('',#160,POSITIVE_LENGTH_MEASURE(0.18),#198);
#156=CURVE_STYLE('',#161,POSITIVE_LENGTH_MEASURE(0.18),#198);
#157=CURVE_STYLE('',#162,POSITIVE_LENGTH_MEASURE(0.18),#198);
#158=DRAUGHTING_PRE_DEFINED_COLOUR('blue');
#159=DRAUGHTING_PRE_DEFINED_CURVE_FONT('continuous');
#160=DRAUGHTING_PRE_DEFINED_CURVE_FONT('continuous');
#161=DRAUGHTING_PRE_DEFINED_CURVE_FONT('continuous');
#162=DRAUGHTING_PRE_DEFINED_CURVE_FONT('continuous');
#163=TRIMMED_CURVE('CUTTING PART LINE',#164,(PARAMETER_VALUE(0.)),(
PARAMETER_VALUE(1.)),.T.,.PARAMETER.);
#164=(
BOUNDED_CURVE()
B_SPLINE_CURVE(3,(#276,#277,#278,#279,#280,#281,#282,#283,#284,#285,#286,
#287,#288,#289,#290,#291),.UNSPECIFIED.,.T.,.F.)
B_SPLINE_CURVE_WITH_KNOTS((4,3,3,3,3,4),(0.,0.409732057268495,0.425999874112722,
0.499516786873663,0.91610966567497,1.),.UNSPECIFIED.)
CURVE()
GEOMETRIC_REPRESENTATION_ITEM()
RATIONAL_B_SPLINE_CURVE((1.,1.,1.,1.,0.794300010001035,0.794300010001035,
1.,1.,1.,1.,1.,1.,1.,1.,1.,1.))
REPRESENTATION_ITEM('CUTTING PART LINE')
);
#165=PRESENTATION_LAYER_ASSIGNMENT('1','Layer 1',(#272,#273,#274,#275,#163,
#203,#204,#205,#53));
#166=PRESENTATION_LAYER_ASSIGNMENT('2','Layer 2',(#54));
#167=PRESENTATION_LAYER_ASSIGNMENT('3','Layer 3',(#55));
#168=STYLED_ITEM('',(#179),#272);
#169=STYLED_ITEM('',(#180),#273);
#170=STYLED_ITEM('',(#181),#274);
#171=STYLED_ITEM('',(#182),#275);
#172=STYLED_ITEM('',(#183),#163);
#173=STYLED_ITEM('',(#184),#203);
#174=STYLED_ITEM('',(#185),#204);
#175=STYLED_ITEM('',(#186),#205);
#176=STYLED_ITEM('',(#187),#53);
#177=STYLED_ITEM('',(#188),#54);
#178=STYLED_ITEM('',(#189),#55);
#179=PRESENTATION_STYLE_ASSIGNMENT((#190));
#180=PRESENTATION_STYLE_ASSIGNMENT((#191));
#181=PRESENTATION_STYLE_ASSIGNMENT((#192));
#182=PRESENTATION_STYLE_ASSIGNMENT((#193));
#183=PRESENTATION_STYLE_ASSIGNMENT((#154));
#184=PRESENTATION_STYLE_ASSIGNMENT((#155));
#185=PRESENTATION_STYLE_ASSIGNMENT((#156));
#186=PRESENTATION_STYLE_ASSIGNMENT((#157));
#187=PRESENTATION_STYLE_ASSIGNMENT((#38));
#188=PRESENTATION_STYLE_ASSIGNMENT((#39));
#189=PRESENTATION_STYLE_ASSIGNMENT((#40));
#190=POINT_STYLE('',#194,POSITIVE_LENGTH_MEASURE(3.),#198);
#191=POINT_STYLE('',#195,POSITIVE_LENGTH_MEASURE(3.),#198);
#192=POINT_STYLE('',#196,POSITIVE_LENGTH_MEASURE(3.),#198);
#193=POINT_STYLE('',#197,POSITIVE_LENGTH_MEASURE(3.),#199);
#194=PRE_DEFINED_POINT_MARKER_SYMBOL('plus');
#195=PRE_DEFINED_POINT_MARKER_SYMBOL('plus');
#196=PRE_DEFINED_POINT_MARKER_SYMBOL('plus');
#197=PRE_DEFINED_POINT_MARKER_SYMBOL('plus');
#198=COLOUR_RGB('Pale Maroon',0.811749446860456,0.603921568627451,0.611749446860456);
#199=COLOUR_RGB('Medium Royal',0.2,0.4,0.8);
#200=COLOUR_RGB('Medium Gray',0.490196078431373,0.490196078431373,0.490196078431373);
#201=COLOUR_RGB('Light Gray',0.8,0.8,0.8);
#202=AXIS2_PLACEMENT_3D('',#271,#225,#226);
#203=AXIS2_PLACEMENT_3D('PCS',#292,#227,#228);
#204=AXIS2_PLACEMENT_3D('MCS',#293,#229,#230);
#205=AXIS2_PLACEMENT_3D('CIP',#294,#231,#232);
#206=AXIS2_PLACEMENT_3D('',#295,#233,#234);
#207=AXIS2_PLACEMENT_3D('',#297,#235,#236);
#208=AXIS2_PLACEMENT_3D('',#298,#237,#238);
#209=AXIS2_PLACEMENT_3D('',#300,#239,#240);
#210=AXIS2_PLACEMENT_3D('',#301,#241,#242);
#211=AXIS2_PLACEMENT_3D('',#303,#243,#244);
#212=AXIS2_PLACEMENT_3D('',#304,#245,#246);
#213=AXIS2_PLACEMENT_3D('',#305,#247,#248);
#214=AXIS2_PLACEMENT_3D('',#307,#249,#250);
#215=AXIS2_PLACEMENT_3D('',#309,#251,#252);
#216=AXIS2_PLACEMENT_3D('',#310,#253,#254);
#217=AXIS2_PLACEMENT_3D('',#311,#255,#256);
#218=AXIS2_PLACEMENT_3D('',#312,#257,#258);
#219=AXIS2_PLACEMENT_3D('',#315,#259,#260);
#220=AXIS2_PLACEMENT_3D('',#316,#261,#262);
#221=AXIS2_PLACEMENT_3D('',#318,#263,#264);
#222=AXIS2_PLACEMENT_3D('',#319,#265,#266);
#223=AXIS2_PLACEMENT_3D('',#321,#267,#268);
#224=AXIS2_PLACEMENT_3D('',#322,#269,#270);
#225=DIRECTION('',(0.,0.,1.));
#226=DIRECTION('',(1.,0.,0.));
#227=DIRECTION('',(0.,0.,1.));
#228=DIRECTION('',(1.,0.,0.));
#229=DIRECTION('',(0.,0.,1.));
#230=DIRECTION('',(1.,0.,0.));
#231=DIRECTION('',(0.,0.,1.));
#232=DIRECTION('',(1.,0.,0.));
#233=DIRECTION('',(0.,0.,-1.));
#234=DIRECTION('',(-1.,0.,0.));
#235=DIRECTION('',(0.,0.,1.));
#236=DIRECTION('',(-1.,0.,0.));
#237=DIRECTION('',(0.,0.,-1.));
#238=DIRECTION('',(-1.,0.,0.));
#239=DIRECTION('',(0.,0.,-1.));
#240=DIRECTION('',(1.,0.,3.45846632138316E-17));
#241=DIRECTION('',(0.,0.,1.));
#242=DIRECTION('',(1.,0.,0.));
#243=DIRECTION('',(0.,0.,-1.));
#244=DIRECTION('',(1.,0.,0.));
#245=DIRECTION('',(0.,0.,1.));
#246=DIRECTION('',(-1.,0.,0.));
#247=DIRECTION('',(0.,0.,-1.));
#248=DIRECTION('',(-1.,0.,0.));
#249=DIRECTION('',(0.,0.,-1.));
#250=DIRECTION('',(1.,0.,0.));
#251=DIRECTION('',(0.,0.,-1.));
#252=DIRECTION('',(1.,0.,0.));
#253=DIRECTION('',(0.,0.,-1.));
#254=DIRECTION('',(1.,0.,0.));
#255=DIRECTION('',(0.,0.,1.));
#256=DIRECTION('',(-1.,0.,0.));
#257=DIRECTION('',(0.,0.,-1.));
#258=DIRECTION('',(-1.,0.,0.));
#259=DIRECTION('',(0.,0.,-1.));
#260=DIRECTION('',(1.,0.,7.57396626466794E-19));
#261=DIRECTION('',(0.,0.,-1.));
#262=DIRECTION('',(-1.,0.,0.));
#263=DIRECTION('',(0.,0.,-1.));
#264=DIRECTION('',(1.,0.,0.));
#265=DIRECTION('',(0.,0.,-1.));
#266=DIRECTION('',(-1.,0.,0.));
#267=DIRECTION('',(0.,0.,-1.));
#268=DIRECTION('',(1.,0.,-2.07160044914139E-14));
#269=DIRECTION('',(0.,0.,-1.));
#270=DIRECTION('',(1.,0.,0.));
#271=CARTESIAN_POINT('',(0.,0.,0.));
#272=CARTESIAN_POINT('',(0.,0.,32.));
#273=CARTESIAN_POINT('',(0.,0.,0.));
#274=CARTESIAN_POINT('',(0.,0.,-18.8));
#275=CARTESIAN_POINT('CRP',(-3.175,0.,-18.79963737242));
#276=CARTESIAN_POINT('',(-3.17229579263246,0.,-2.92500000000473));
#277=CARTESIAN_POINT('',(-3.17319719315399,0.,-8.08964450099007));
#278=CARTESIAN_POINT('',(-3.17409859367551,0.,-13.2542890019754));
#279=CARTESIAN_POINT('',(-3.17499999419704,0.,-18.4189335029583));
#280=CARTESIAN_POINT('',(-3.17504031404288,0.,-18.6499492003214));
#281=CARTESIAN_POINT('',(-3.0081768385396,0.,-18.809714135767));
#282=CARTESIAN_POINT('',(-2.77738101341381,0.,-18.7996373724227));
#283=CARTESIAN_POINT('',(-1.85158734227588,0.,-18.759216347802));
#284=CARTESIAN_POINT('',(-0.925793671137939,0.,-18.7187953231814));
#285=CARTESIAN_POINT('',(-1.11022302462516E-15,0.,-18.6783742985608));
#286=CARTESIAN_POINT('',(0.,0.,-13.4272495323739));
#287=CARTESIAN_POINT('',(0.,0.,-8.17612476618693));
#288=CARTESIAN_POINT('',(0.,0.,-2.925));
#289=CARTESIAN_POINT('',(-1.05743193087749,0.,-2.925));
#290=CARTESIAN_POINT('',(-2.11486386175497,0.,-2.925));
#291=CARTESIAN_POINT('',(-3.17229579263246,0.,-2.925));
#292=CARTESIAN_POINT('',(0.,0.,32.));
#293=CARTESIAN_POINT('',(0.,0.,0.));
#294=CARTESIAN_POINT('',(0.,0.,-18.8));
#295=CARTESIAN_POINT('',(0.,0.,32.));
#296=CARTESIAN_POINT('',(-2.8702,0.,32.));
#297=CARTESIAN_POINT('',(2.8702,0.,32.));
#298=CARTESIAN_POINT('',(0.,0.,31.6952));
#299=CARTESIAN_POINT('',(-3.175,0.,31.6952));
#300=CARTESIAN_POINT('',(0.,0.,31.6952));
#301=CARTESIAN_POINT('',(0.,0.,0.));
#302=CARTESIAN_POINT('',(3.175,0.,0.));
#303=CARTESIAN_POINT('',(0.,0.,0.));
#304=CARTESIAN_POINT('',(0.,0.,0.));
#305=CARTESIAN_POINT('',(0.,0.,-2.925));
#306=CARTESIAN_POINT('',(-3.175,0.,-2.925));
#307=CARTESIAN_POINT('',(0.,0.,0.));
#308=CARTESIAN_POINT('',(3.175,0.,0.));
#309=CARTESIAN_POINT('',(0.,0.,0.));
#310=CARTESIAN_POINT('',(3.17229579263246,0.,-2.925));
#311=CARTESIAN_POINT('',(0.,0.,0.));
#312=CARTESIAN_POINT('',(0.,0.,-18.7996373724227));
#313=CARTESIAN_POINT('',(-2.77738101341381,0.,-18.7996373724227));
#314=CARTESIAN_POINT('',(-2.09698539651276E-15,0.,-18.6783742985608));
#315=CARTESIAN_POINT('',(0.,0.,-18.6783742985608));
#316=CARTESIAN_POINT('',(0.,0.,-18.4189335029558));
#317=CARTESIAN_POINT('',(-3.17499999419704,0.,-18.4189335029558));
#318=CARTESIAN_POINT('',(0.,0.,-18.419));
#319=CARTESIAN_POINT('',(0.,0.,-2.925));
#320=CARTESIAN_POINT('',(-3.17229579263246,0.,-2.925));
#321=CARTESIAN_POINT('',(0.,0.,-18.4189335029558));
#322=CARTESIAN_POINT('',(0.,0.,-2.925));
#323=MECHANICAL_DESIGN_GEOMETRIC_PRESENTATION_REPRESENTATION('',(#168,#169,
#170,#171,#172,#173,#174,#175,#176,#177,#178),#324);
#324=(
GEOMETRIC_REPRESENTATION_CONTEXT(3)
GLOBAL_UNCERTAINTY_ASSIGNED_CONTEXT((#325))
GLOBAL_UNIT_ASSIGNED_CONTEXT((#331,#327,#326))
REPRESENTATION_CONTEXT('SCS638R.250D3R015','TOP_LEVEL_ASSEMBLY_PART')
);
#325=UNCERTAINTY_MEASURE_WITH_UNIT(LENGTH_MEASURE(2.E-5),#331,
'DISTANCE_ACCURACY_VALUE','Maximum Tolerance applied to model');
#326=(
NAMED_UNIT(*)
SI_UNIT($,.STERADIAN.)
SOLID_ANGLE_UNIT()
);
#327=(
CONVERSION_BASED_UNIT('DEGREE',#329)
NAMED_UNIT(#328)
PLANE_ANGLE_UNIT()
);
#328=DIMENSIONAL_EXPONENTS(0.,0.,0.,0.,0.,0.,0.);
#329=PLANE_ANGLE_MEASURE_WITH_UNIT(PLANE_ANGLE_MEASURE(0.0174532925),#330);
#330=(
NAMED_UNIT(*)
PLANE_ANGLE_UNIT()
SI_UNIT($,.RADIAN.)
);
#331=(
LENGTH_UNIT()
NAMED_UNIT(*)
SI_UNIT(.MILLI.,.METRE.)
);
ENDSEC;
END-ISO-10303-21;
