ISO-10303-21;
HEADER;
/* Generated by software containing ST-Developer
 * from STEP Tools, Inc. (www.steptools.com) 
 */
/* OPTION: using custom schema-name function */

FILE_DESCRIPTION(
/* description */ (''),
/* implementation_level */ '2;1');

FILE_NAME(
/* name */ 'S738R.250D4R015.0Z7_Basic.stp',
/* time_stamp */ '2022-03-02T12:52:15+05:00',
/* author */ (''),
/* organization */ (''),
/* preprocessor_version */ 'ST-DEVELOPER v16.7',
/* originating_system */ 'SIEMENS PLM Software NX 12.0',
/* authorisation */ '');

FILE_SCHEMA (('AUTOMOTIVE_DESIGN { 1 0 10303 214 3 1 1 1 }'));
ENDSEC;

DATA;
#10=CONSTRUCTIVE_GEOMETRY_REPRESENTATION_RELATIONSHIP(
'supplemental geometry','',#34,#11);
#11=CONSTRUCTIVE_GEOMETRY_REPRESENTATION('supplemental geometry',(#167,
#168,#169),#266);
#12=GEOMETRICALLY_BOUNDED_WIREFRAME_SHAPE_REPRESENTATION(
'S738R.250D4R015.0Z7_Basic-None',(#35),#266);
#13=PROPERTY_DEFINITION_REPRESENTATION(#17,#15);
#14=PROPERTY_DEFINITION_REPRESENTATION(#18,#16);
#15=REPRESENTATION('',(#19),#266);
#16=REPRESENTATION('',(#20),#266);
#17=PROPERTY_DEFINITION('pmi validation property','',#25);
#18=PROPERTY_DEFINITION('pmi validation property','',#25);
#19=VALUE_REPRESENTATION_ITEM('number of annotations',COUNT_MEASURE(0.));
#20=VALUE_REPRESENTATION_ITEM('number of views',COUNT_MEASURE(0.));
#21=SHAPE_REPRESENTATION_RELATIONSHIP('None',
'relationship between S738R.250D4R015.0Z7_Basic-None and S738R.250D4R0
15.0Z7_Basic-None',#34,#23);
#22=SHAPE_REPRESENTATION_RELATIONSHIP('None',
'relationship between S738R.250D4R015.0Z7_Basic-None and S738R.250D4R0
15.0Z7_Basic-None',#34,#12);
#23=ADVANCED_BREP_SHAPE_REPRESENTATION('S738R.250D4R015.0Z7_Basic-None',
(#48,#49),#266);
#24=SHAPE_DEFINITION_REPRESENTATION(#25,#34);
#25=PRODUCT_DEFINITION_SHAPE('','',#26);
#26=PRODUCT_DEFINITION(' ','',#28,#27);
#27=PRODUCT_DEFINITION_CONTEXT('part definition',#33,'design');
#28=PRODUCT_DEFINITION_FORMATION_WITH_SPECIFIED_SOURCE(' ',' ',#30,
 .NOT_KNOWN.);
#29=PRODUCT_RELATED_PRODUCT_CATEGORY('part','',(#30));
#30=PRODUCT('inpu0964B760k3q1','inpu0964B760k3q1',' ',(#31));
#31=PRODUCT_CONTEXT(' ',#33,'mechanical');
#32=APPLICATION_PROTOCOL_DEFINITION('international standard',
'automotive_design',2010,#33);
#33=APPLICATION_CONTEXT(
'core data for automotive mechanical design processes');
#34=SHAPE_REPRESENTATION('S738R.250D4R015.0Z7_Basic-None',(#166),#266);
#35=GEOMETRIC_CURVE_SET('None',(#221,#222,#223,#224,#131));
#36=TOROIDAL_SURFACE('',#180,2.794,0.381);
#37=VERTEX_LOOP('',#108);
#38=SURFACE_STYLE_USAGE(.BOTH.,#40);
#39=SURFACE_STYLE_USAGE(.BOTH.,#41);
#40=SURFACE_SIDE_STYLE('',(#42));
#41=SURFACE_SIDE_STYLE('',(#43));
#42=SURFACE_STYLE_FILL_AREA(#44);
#43=SURFACE_STYLE_FILL_AREA(#45);
#44=FILL_AREA_STYLE('',(#46));
#45=FILL_AREA_STYLE('',(#47));
#46=FILL_AREA_STYLE_COLOUR('',#164);
#47=FILL_AREA_STYLE_COLOUR('',#165);
#48=MANIFOLD_SOLID_BREP('NOCUT',#50);
#49=MANIFOLD_SOLID_BREP('CUT',#51);
#50=CLOSED_SHELL('',(#59,#60,#61,#62));
#51=CLOSED_SHELL('',(#63,#64,#65,#66));
#52=CYLINDRICAL_SURFACE('',#176,3.175);
#53=PLANE('',#173);
#54=PLANE('',#175);
#55=PLANE('',#183);
#56=FACE_OUTER_BOUND('',#82,.T.);
#57=FACE_OUTER_BOUND('',#83,.T.);
#58=FACE_OUTER_BOUND('',#91,.T.);
#59=ADVANCED_FACE('',(#70,#71),#67,.T.);
#60=ADVANCED_FACE('',(#56),#53,.T.);
#61=ADVANCED_FACE('',(#57),#54,.T.);
#62=ADVANCED_FACE('',(#72,#73),#52,.T.);
#63=ADVANCED_FACE('',(#74,#75),#68,.F.);
#64=ADVANCED_FACE('',(#76,#77),#36,.T.);
#65=ADVANCED_FACE('',(#78,#79),#69,.T.);
#66=ADVANCED_FACE('',(#58),#55,.F.);
#67=CONICAL_SURFACE('',#172,3.175,45.0000000000006);
#68=CONICAL_SURFACE('',#178,2.1094237467878E-15,86.9999999999999);
#69=CONICAL_SURFACE('',#182,3.17499999419704,0.0100000000000021);
#70=FACE_BOUND('',#80,.T.);
#71=FACE_BOUND('',#81,.T.);
#72=FACE_BOUND('',#84,.T.);
#73=FACE_BOUND('',#85,.T.);
#74=FACE_BOUND('',#86,.T.);
#75=FACE_BOUND('',#37,.T.);
#76=FACE_BOUND('',#87,.T.);
#77=FACE_BOUND('',#88,.T.);
#78=FACE_BOUND('',#89,.T.);
#79=FACE_BOUND('',#90,.T.);
#80=EDGE_LOOP('',(#92));
#81=EDGE_LOOP('',(#93));
#82=EDGE_LOOP('',(#94));
#83=EDGE_LOOP('',(#95));
#84=EDGE_LOOP('',(#96));
#85=EDGE_LOOP('',(#97));
#86=EDGE_LOOP('',(#98));
#87=EDGE_LOOP('',(#99));
#88=EDGE_LOOP('',(#100));
#89=EDGE_LOOP('',(#101));
#90=EDGE_LOOP('',(#102));
#91=EDGE_LOOP('',(#103));
#92=ORIENTED_EDGE('',*,*,#111,.T.);
#93=ORIENTED_EDGE('',*,*,#112,.F.);
#94=ORIENTED_EDGE('',*,*,#111,.F.);
#95=ORIENTED_EDGE('',*,*,#113,.T.);
#96=ORIENTED_EDGE('',*,*,#112,.T.);
#97=ORIENTED_EDGE('',*,*,#113,.F.);
#98=ORIENTED_EDGE('',*,*,#114,.T.);
#99=ORIENTED_EDGE('',*,*,#115,.T.);
#100=ORIENTED_EDGE('',*,*,#114,.F.);
#101=ORIENTED_EDGE('',*,*,#116,.T.);
#102=ORIENTED_EDGE('',*,*,#115,.F.);
#103=ORIENTED_EDGE('',*,*,#116,.F.);
#104=VERTEX_POINT('',#245);
#105=VERTEX_POINT('',#247);
#106=VERTEX_POINT('',#251);
#107=VERTEX_POINT('',#255);
#108=VERTEX_POINT('',#256);
#109=VERTEX_POINT('',#259);
#110=VERTEX_POINT('',#262);
#111=EDGE_CURVE('',#104,#104,#117,.T.);
#112=EDGE_CURVE('',#105,#105,#118,.T.);
#113=EDGE_CURVE('',#106,#106,#119,.T.);
#114=EDGE_CURVE('',#107,#107,#120,.T.);
#115=EDGE_CURVE('',#109,#109,#121,.T.);
#116=EDGE_CURVE('',#110,#110,#122,.T.);
#117=CIRCLE('',#170,2.87019999999999);
#118=CIRCLE('',#171,3.175);
#119=CIRCLE('',#174,3.175);
#120=CIRCLE('',#177,2.77406000067144);
#121=CIRCLE('',#179,3.17499999419704);
#122=CIRCLE('',#181,3.17118750854619);
#123=CURVE_STYLE('',#127,POSITIVE_LENGTH_MEASURE(0.18),#163);
#124=CURVE_STYLE('',#128,POSITIVE_LENGTH_MEASURE(0.18),#162);
#125=CURVE_STYLE('',#129,POSITIVE_LENGTH_MEASURE(0.18),#162);
#126=CURVE_STYLE('',#130,POSITIVE_LENGTH_MEASURE(0.18),#162);
#127=DRAUGHTING_PRE_DEFINED_CURVE_FONT('continuous');
#128=DRAUGHTING_PRE_DEFINED_CURVE_FONT('continuous');
#129=DRAUGHTING_PRE_DEFINED_CURVE_FONT('continuous');
#130=DRAUGHTING_PRE_DEFINED_CURVE_FONT('continuous');
#131=TRIMMED_CURVE('',#132,(PARAMETER_VALUE(0.)),(PARAMETER_VALUE(1.)),
 .T.,.PARAMETER.);
#132=(
BOUNDED_CURVE()
B_SPLINE_CURVE(3,(#225,#226,#227,#228,#229,#230,#231,#232,#233,#234,#235,
#236,#237,#238,#239,#240),.UNSPECIFIED.,.T.,.F.)
B_SPLINE_CURVE_WITH_KNOTS((4,3,3,3,3,4),(0.,0.432633907692724,0.444883501546309,
0.499901038756989,0.937192483086871,1.),.UNSPECIFIED.)
CURVE()
GEOMETRIC_REPRESENTATION_ITEM()
RATIONAL_B_SPLINE_CURVE((1.,1.,1.,1.,0.792194181478215,0.792194181478215,
1.,1.,1.,1.,1.,1.,1.,1.,1.,1.))
REPRESENTATION_ITEM('')
);
#133=PRESENTATION_LAYER_ASSIGNMENT('1','Layer 1',(#221,#222,#223,#224,#131,
#167,#168,#169,#48,#49));
#134=STYLED_ITEM('',(#144),#221);
#135=STYLED_ITEM('',(#145),#222);
#136=STYLED_ITEM('',(#146),#223);
#137=STYLED_ITEM('',(#147),#224);
#138=STYLED_ITEM('',(#148),#131);
#139=STYLED_ITEM('',(#149),#167);
#140=STYLED_ITEM('',(#150),#168);
#141=STYLED_ITEM('',(#151),#169);
#142=STYLED_ITEM('',(#152),#48);
#143=STYLED_ITEM('',(#153),#49);
#144=PRESENTATION_STYLE_ASSIGNMENT((#154));
#145=PRESENTATION_STYLE_ASSIGNMENT((#155));
#146=PRESENTATION_STYLE_ASSIGNMENT((#156));
#147=PRESENTATION_STYLE_ASSIGNMENT((#157));
#148=PRESENTATION_STYLE_ASSIGNMENT((#123));
#149=PRESENTATION_STYLE_ASSIGNMENT((#124));
#150=PRESENTATION_STYLE_ASSIGNMENT((#125));
#151=PRESENTATION_STYLE_ASSIGNMENT((#126));
#152=PRESENTATION_STYLE_ASSIGNMENT((#38));
#153=PRESENTATION_STYLE_ASSIGNMENT((#39));
#154=POINT_STYLE('',#158,POSITIVE_LENGTH_MEASURE(3.),#162);
#155=POINT_STYLE('',#159,POSITIVE_LENGTH_MEASURE(3.),#162);
#156=POINT_STYLE('',#160,POSITIVE_LENGTH_MEASURE(3.),#162);
#157=POINT_STYLE('',#161,POSITIVE_LENGTH_MEASURE(3.),#163);
#158=PRE_DEFINED_POINT_MARKER_SYMBOL('plus');
#159=PRE_DEFINED_POINT_MARKER_SYMBOL('plus');
#160=PRE_DEFINED_POINT_MARKER_SYMBOL('plus');
#161=PRE_DEFINED_POINT_MARKER_SYMBOL('plus');
#162=COLOUR_RGB('Pale Maroon',0.811749446860456,0.603921568627451,0.611749446860456);
#163=COLOUR_RGB('Medium Royal',0.2,0.4,0.8);
#164=COLOUR_RGB('Medium Gray',0.490196078431373,0.490196078431373,0.490196078431373);
#165=COLOUR_RGB('Light Gray',0.8,0.8,0.8);
#166=AXIS2_PLACEMENT_3D('',#220,#184,#185);
#167=AXIS2_PLACEMENT_3D('PCS',#241,#186,#187);
#168=AXIS2_PLACEMENT_3D('MCS',#242,#188,#189);
#169=AXIS2_PLACEMENT_3D('CIP',#243,#190,#191);
#170=AXIS2_PLACEMENT_3D('',#244,#192,#193);
#171=AXIS2_PLACEMENT_3D('',#246,#194,#195);
#172=AXIS2_PLACEMENT_3D('',#248,#196,#197);
#173=AXIS2_PLACEMENT_3D('',#249,#198,#199);
#174=AXIS2_PLACEMENT_3D('',#250,#200,#201);
#175=AXIS2_PLACEMENT_3D('',#252,#202,#203);
#176=AXIS2_PLACEMENT_3D('',#253,#204,#205);
#177=AXIS2_PLACEMENT_3D('',#254,#206,#207);
#178=AXIS2_PLACEMENT_3D('',#257,#208,#209);
#179=AXIS2_PLACEMENT_3D('',#258,#210,#211);
#180=AXIS2_PLACEMENT_3D('',#260,#212,#213);
#181=AXIS2_PLACEMENT_3D('',#261,#214,#215);
#182=AXIS2_PLACEMENT_3D('',#263,#216,#217);
#183=AXIS2_PLACEMENT_3D('',#264,#218,#219);
#184=DIRECTION('',(0.,0.,1.));
#185=DIRECTION('',(1.,0.,0.));
#186=DIRECTION('',(0.,0.,1.));
#187=DIRECTION('',(1.,0.,0.));
#188=DIRECTION('',(0.,0.,1.));
#189=DIRECTION('',(1.,0.,0.));
#190=DIRECTION('',(0.,0.,1.));
#191=DIRECTION('',(1.,0.,0.));
#192=DIRECTION('',(0.,0.,-1.));
#193=DIRECTION('',(-1.,0.,0.));
#194=DIRECTION('',(0.,0.,-1.));
#195=DIRECTION('',(-1.,0.,0.));
#196=DIRECTION('',(0.,0.,-1.));
#197=DIRECTION('',(1.,0.,-4.84185284993641E-17));
#198=DIRECTION('',(0.,0.,1.));
#199=DIRECTION('',(-1.,0.,0.));
#200=DIRECTION('',(0.,0.,-1.));
#201=DIRECTION('',(-1.,0.,0.));
#202=DIRECTION('',(0.,0.,-1.));
#203=DIRECTION('',(1.,0.,0.));
#204=DIRECTION('',(0.,0.,-1.));
#205=DIRECTION('',(1.,0.,0.));
#206=DIRECTION('',(0.,0.,-1.));
#207=DIRECTION('',(-1.,0.,0.));
#208=DIRECTION('',(0.,0.,-1.));
#209=DIRECTION('',(1.,0.,1.81826010092211E-19));
#210=DIRECTION('',(0.,0.,-1.));
#211=DIRECTION('',(-1.,0.,0.));
#212=DIRECTION('',(0.,0.,-1.));
#213=DIRECTION('',(1.,0.,0.));
#214=DIRECTION('',(0.,0.,-1.));
#215=DIRECTION('',(-1.,0.,0.));
#216=DIRECTION('',(0.,0.,-1.));
#217=DIRECTION('',(1.,0.,-2.38234051651269E-14));
#218=DIRECTION('',(0.,0.,-1.));
#219=DIRECTION('',(1.,0.,0.));
#220=CARTESIAN_POINT('',(0.,0.,0.));
#221=CARTESIAN_POINT('',(0.,0.,41.275));
#222=CARTESIAN_POINT('',(0.,0.,0.));
#223=CARTESIAN_POINT('',(0.,0.,-22.225));
#224=CARTESIAN_POINT('',(-3.175,0.,-22.22447785274));
#225=CARTESIAN_POINT('',(-3.17118750854619,0.,0.));
#226=CARTESIAN_POINT('',(-3.17245833709648,0.,-7.28131116765359));
#227=CARTESIAN_POINT('',(-3.17372916564676,0.,-14.5626223353072));
#228=CARTESIAN_POINT('',(-3.17499999419704,0.,-21.8439335029583));
#229=CARTESIAN_POINT('',(-3.17504058966973,0.,-22.0765284258743));
#230=CARTESIAN_POINT('',(-3.00633616386957,0.,-22.2366509306351));
#231=CARTESIAN_POINT('',(-2.77406000067144,0.,-22.2244778527415));
#232=CARTESIAN_POINT('',(-1.84937333378096,0.,-22.1760170779972));
#233=CARTESIAN_POINT('',(-0.924686666890482,0.,-22.1275563032528));
#234=CARTESIAN_POINT('',(-1.11022302462516E-15,0.,-22.0790955285084));
#235=CARTESIAN_POINT('',(0.,0.,-14.7193970190056));
#236=CARTESIAN_POINT('',(0.,0.,-7.3596985095028));
#237=CARTESIAN_POINT('',(0.,0.,0.));
#238=CARTESIAN_POINT('',(-1.05706250284873,0.,0.));
#239=CARTESIAN_POINT('',(-2.11412500569746,0.,0.));
#240=CARTESIAN_POINT('',(-3.17118750854619,0.,0.));
#241=CARTESIAN_POINT('',(0.,0.,41.275));
#242=CARTESIAN_POINT('',(0.,0.,0.));
#243=CARTESIAN_POINT('',(0.,0.,-22.225));
#244=CARTESIAN_POINT('',(0.,0.,41.275));
#245=CARTESIAN_POINT('',(-2.87019999999999,0.,41.275));
#246=CARTESIAN_POINT('',(0.,0.,40.9702));
#247=CARTESIAN_POINT('',(-3.175,0.,40.9702));
#248=CARTESIAN_POINT('',(0.,0.,40.9702));
#249=CARTESIAN_POINT('',(2.87019999999999,0.,41.275));
#250=CARTESIAN_POINT('',(0.,0.,0.));
#251=CARTESIAN_POINT('',(-3.175,0.,0.));
#252=CARTESIAN_POINT('',(3.17118750854619,0.,0.));
#253=CARTESIAN_POINT('',(0.,0.,-3.962));
#254=CARTESIAN_POINT('',(0.,0.,-22.2244778527415));
#255=CARTESIAN_POINT('',(-2.77406000067144,0.,-22.2244778527415));
#256=CARTESIAN_POINT('',(-2.1094237467878E-15,0.,-22.0790955285084));
#257=CARTESIAN_POINT('',(0.,0.,-22.0790955285084));
#258=CARTESIAN_POINT('',(0.,0.,-21.8439335029558));
#259=CARTESIAN_POINT('',(-3.17499999419704,0.,-21.8439335029558));
#260=CARTESIAN_POINT('',(0.,0.,-21.844));
#261=CARTESIAN_POINT('',(0.,0.,0.));
#262=CARTESIAN_POINT('',(-3.17118750854619,0.,0.));
#263=CARTESIAN_POINT('',(0.,0.,-21.8439335029558));
#264=CARTESIAN_POINT('',(0.,0.,0.));
#265=MECHANICAL_DESIGN_GEOMETRIC_PRESENTATION_REPRESENTATION('',(#134,#135,
#136,#137,#138,#139,#140,#141,#142,#143),#266);
#266=(
GEOMETRIC_REPRESENTATION_CONTEXT(3)
GLOBAL_UNCERTAINTY_ASSIGNED_CONTEXT((#267))
GLOBAL_UNIT_ASSIGNED_CONTEXT((#273,#269,#268))
REPRESENTATION_CONTEXT('S738R.250D4R015','TOP_LEVEL_ASSEMBLY_PART')
);
#267=UNCERTAINTY_MEASURE_WITH_UNIT(LENGTH_MEASURE(2.E-5),#273,
'DISTANCE_ACCURACY_VALUE','Maximum Tolerance applied to model');
#268=(
NAMED_UNIT(*)
SI_UNIT($,.STERADIAN.)
SOLID_ANGLE_UNIT()
);
#269=(
CONVERSION_BASED_UNIT('DEGREE',#271)
NAMED_UNIT(#270)
PLANE_ANGLE_UNIT()
);
#270=DIMENSIONAL_EXPONENTS(0.,0.,0.,0.,0.,0.,0.);
#271=PLANE_ANGLE_MEASURE_WITH_UNIT(PLANE_ANGLE_MEASURE(0.0174532925),#272);
#272=(
NAMED_UNIT(*)
PLANE_ANGLE_UNIT()
SI_UNIT($,.RADIAN.)
);
#273=(
LENGTH_UNIT()
NAMED_UNIT(*)
SI_UNIT(.MILLI.,.METRE.)
);
ENDSEC;
END-ISO-10303-21;
