ISO-10303-21;
HEADER;
/* Generated by software containing ST-Developer
 * from STEP Tools, Inc. (www.steptools.com) 
 */
/* OPTION: using custom schema-name function */

FILE_DESCRIPTION(
/* description */ (''),
/* implementation_level */ '2;1');

FILE_NAME(
/* name */ 'SB638.750D3B.0Z6_Basic.stp',
/* time_stamp */ '2022-02-17T15:24:44+06:00',
/* author */ (''),
/* organization */ (''),
/* preprocessor_version */ 'ST-DEVELOPER v16.7',
/* originating_system */ 'SIEMENS PLM Software NX 12.0',
/* authorisation */ '');

FILE_SCHEMA (('AUTOMOTIVE_DESIGN { 1 0 10303 214 3 1 1 1 }'));
ENDSEC;

DATA;
#10=CONSTRUCTIVE_GEOMETRY_REPRESENTATION_RELATIONSHIP(
'supplemental geometry','',#34,#11);
#11=CONSTRUCTIVE_GEOMETRY_REPRESENTATION('supplemental geometry',(#187,
#188,#189),#295);
#12=GEOMETRICALLY_BOUNDED_WIREFRAME_SHAPE_REPRESENTATION(
'SB638.750D3B.0Z6_Basic-None',(#35),#295);
#13=PROPERTY_DEFINITION_REPRESENTATION(#17,#15);
#14=PROPERTY_DEFINITION_REPRESENTATION(#18,#16);
#15=REPRESENTATION('',(#19),#295);
#16=REPRESENTATION('',(#20),#295);
#17=PROPERTY_DEFINITION('pmi validation property','',#25);
#18=PROPERTY_DEFINITION('pmi validation property','',#25);
#19=VALUE_REPRESENTATION_ITEM('number of annotations',COUNT_MEASURE(0.));
#20=VALUE_REPRESENTATION_ITEM('number of views',COUNT_MEASURE(0.));
#21=SHAPE_REPRESENTATION_RELATIONSHIP('None',
'relationship between SB638.750D3B.0Z6_Basic-None and SB638.750D3B.0Z6
_Basic-None',#34,#23);
#22=SHAPE_REPRESENTATION_RELATIONSHIP('None',
'relationship between SB638.750D3B.0Z6_Basic-None and SB638.750D3B.0Z6
_Basic-None',#34,#12);
#23=ADVANCED_BREP_SHAPE_REPRESENTATION('SB638.750D3B.0Z6_Basic-None',(#52,
#53,#54),#295);
#24=SHAPE_DEFINITION_REPRESENTATION(#25,#34);
#25=PRODUCT_DEFINITION_SHAPE('','',#26);
#26=PRODUCT_DEFINITION(' ','',#28,#27);
#27=PRODUCT_DEFINITION_CONTEXT('part definition',#33,'design');
#28=PRODUCT_DEFINITION_FORMATION_WITH_SPECIFIED_SOURCE(' ',' ',#30,
 .NOT_KNOWN.);
#29=PRODUCT_RELATED_PRODUCT_CATEGORY('part','',(#30));
#30=PRODUCT('inpu5028E108lq8h','inpu5028E108lq8h',' ',(#31));
#31=PRODUCT_CONTEXT(' ',#33,'mechanical');
#32=APPLICATION_PROTOCOL_DEFINITION('international standard',
'automotive_design',2010,#33);
#33=APPLICATION_CONTEXT(
'core data for automotive mechanical design processes');
#34=SHAPE_REPRESENTATION('SB638.750D3B.0Z6_Basic-None',(#186),#295);
#35=GEOMETRIC_CURVE_SET('None',(#250,#251,#252,#253,#149));
#36=SPHERICAL_SURFACE('',#203,9.52500000000001);
#37=SURFACE_STYLE_USAGE(.BOTH.,#40);
#38=SURFACE_STYLE_USAGE(.BOTH.,#41);
#39=SURFACE_STYLE_USAGE(.BOTH.,#42);
#40=SURFACE_SIDE_STYLE('',(#43));
#41=SURFACE_SIDE_STYLE('',(#44));
#42=SURFACE_SIDE_STYLE('',(#45));
#43=SURFACE_STYLE_FILL_AREA(#46);
#44=SURFACE_STYLE_FILL_AREA(#47);
#45=SURFACE_STYLE_FILL_AREA(#48);
#46=FILL_AREA_STYLE('',(#49));
#47=FILL_AREA_STYLE('',(#50));
#48=FILL_AREA_STYLE('',(#51));
#49=FILL_AREA_STYLE_COLOUR('',#184);
#50=FILL_AREA_STYLE_COLOUR('',#184);
#51=FILL_AREA_STYLE_COLOUR('',#185);
#52=MANIFOLD_SOLID_BREP('NOCUT',#55);
#53=MANIFOLD_SOLID_BREP('NOCUT',#56);
#54=MANIFOLD_SOLID_BREP('CUT',#57);
#55=CLOSED_SHELL('',(#70,#71,#72,#73));
#56=CLOSED_SHELL('',(#74,#75,#76));
#57=CLOSED_SHELL('',(#77,#78,#79));
#58=CYLINDRICAL_SURFACE('',#195,9.525);
#59=CYLINDRICAL_SURFACE('',#199,9.525);
#60=CONICAL_SURFACE('',#193,9.525,45.);
#61=CONICAL_SURFACE('',#205,9.52499985492596,0.0100000000000245);
#62=FACE_BOUND('',#92,.T.);
#63=FACE_BOUND('',#93,.T.);
#64=FACE_BOUND('',#94,.T.);
#65=FACE_BOUND('',#95,.T.);
#66=FACE_BOUND('',#97,.T.);
#67=FACE_BOUND('',#98,.T.);
#68=FACE_BOUND('',#102,.T.);
#69=FACE_BOUND('',#103,.T.);
#70=ADVANCED_FACE('',(#85),#80,.T.);
#71=ADVANCED_FACE('',(#62,#63),#60,.T.);
#72=ADVANCED_FACE('',(#64,#65),#58,.T.);
#73=ADVANCED_FACE('',(#86),#81,.F.);
#74=ADVANCED_FACE('',(#66,#67),#59,.T.);
#75=ADVANCED_FACE('',(#87),#82,.T.);
#76=ADVANCED_FACE('',(#88),#83,.T.);
#77=ADVANCED_FACE('',(#89),#36,.T.);
#78=ADVANCED_FACE('',(#68,#69),#61,.T.);
#79=ADVANCED_FACE('',(#90),#84,.F.);
#80=PLANE('',#191);
#81=PLANE('',#196);
#82=PLANE('',#200);
#83=PLANE('',#201);
#84=PLANE('',#206);
#85=FACE_OUTER_BOUND('',#91,.T.);
#86=FACE_OUTER_BOUND('',#96,.T.);
#87=FACE_OUTER_BOUND('',#99,.T.);
#88=FACE_OUTER_BOUND('',#100,.T.);
#89=FACE_OUTER_BOUND('',#101,.T.);
#90=FACE_OUTER_BOUND('',#104,.T.);
#91=EDGE_LOOP('',(#105));
#92=EDGE_LOOP('',(#106));
#93=EDGE_LOOP('',(#107));
#94=EDGE_LOOP('',(#108));
#95=EDGE_LOOP('',(#109));
#96=EDGE_LOOP('',(#110));
#97=EDGE_LOOP('',(#111));
#98=EDGE_LOOP('',(#112));
#99=EDGE_LOOP('',(#113));
#100=EDGE_LOOP('',(#114));
#101=EDGE_LOOP('',(#115));
#102=EDGE_LOOP('',(#116));
#103=EDGE_LOOP('',(#117));
#104=EDGE_LOOP('',(#118));
#105=ORIENTED_EDGE('',*,*,#126,.F.);
#106=ORIENTED_EDGE('',*,*,#126,.T.);
#107=ORIENTED_EDGE('',*,*,#127,.F.);
#108=ORIENTED_EDGE('',*,*,#128,.F.);
#109=ORIENTED_EDGE('',*,*,#127,.T.);
#110=ORIENTED_EDGE('',*,*,#128,.T.);
#111=ORIENTED_EDGE('',*,*,#129,.F.);
#112=ORIENTED_EDGE('',*,*,#130,.F.);
#113=ORIENTED_EDGE('',*,*,#129,.T.);
#114=ORIENTED_EDGE('',*,*,#130,.T.);
#115=ORIENTED_EDGE('',*,*,#131,.T.);
#116=ORIENTED_EDGE('',*,*,#132,.F.);
#117=ORIENTED_EDGE('',*,*,#131,.F.);
#118=ORIENTED_EDGE('',*,*,#132,.T.);
#119=VERTEX_POINT('',#271);
#120=VERTEX_POINT('',#274);
#121=VERTEX_POINT('',#277);
#122=VERTEX_POINT('',#281);
#123=VERTEX_POINT('',#283);
#124=VERTEX_POINT('',#288);
#125=VERTEX_POINT('',#291);
#126=EDGE_CURVE('',#119,#119,#133,.T.);
#127=EDGE_CURVE('',#120,#120,#134,.T.);
#128=EDGE_CURVE('',#121,#121,#135,.T.);
#129=EDGE_CURVE('',#122,#122,#136,.T.);
#130=EDGE_CURVE('',#123,#123,#137,.T.);
#131=EDGE_CURVE('',#124,#124,#138,.T.);
#132=EDGE_CURVE('',#125,#125,#139,.T.);
#133=CIRCLE('',#190,8.9154);
#134=CIRCLE('',#192,9.525);
#135=CIRCLE('',#194,9.525);
#136=CIRCLE('',#197,9.525);
#137=CIRCLE('',#198,9.525);
#138=CIRCLE('',#202,9.52499985492596);
#139=CIRCLE('',#204,9.52222943485837);
#140=CURVE_STYLE('',#145,POSITIVE_LENGTH_MEASURE(0.18),#144);
#141=CURVE_STYLE('',#146,POSITIVE_LENGTH_MEASURE(0.18),#182);
#142=CURVE_STYLE('',#147,POSITIVE_LENGTH_MEASURE(0.18),#182);
#143=CURVE_STYLE('',#148,POSITIVE_LENGTH_MEASURE(0.18),#182);
#144=DRAUGHTING_PRE_DEFINED_COLOUR('blue');
#145=DRAUGHTING_PRE_DEFINED_CURVE_FONT('continuous');
#146=DRAUGHTING_PRE_DEFINED_CURVE_FONT('continuous');
#147=DRAUGHTING_PRE_DEFINED_CURVE_FONT('continuous');
#148=DRAUGHTING_PRE_DEFINED_CURVE_FONT('continuous');
#149=TRIMMED_CURVE('CUTTING PART LINE',#150,(PARAMETER_VALUE(0.)),(
PARAMETER_VALUE(1.)),.T.,.PARAMETER.);
#150=(
BOUNDED_CURVE()
B_SPLINE_CURVE(3,(#254,#255,#256,#257,#258,#259,#260,#261,#262,#263,#264,
#265,#266),.UNSPECIFIED.,.T.,.F.)
B_SPLINE_CURVE_WITH_KNOTS((4,3,3,3,4),(0.,0.241386307585469,0.468936646227338,
0.855195181382136,1.),.UNSPECIFIED.)
CURVE()
GEOMETRIC_REPRESENTATION_ITEM()
RATIONAL_B_SPLINE_CURVE((1.,1.,1.,1.,0.804696714524459,0.804696714524459,
1.,1.,1.,1.,1.,1.,1.))
REPRESENTATION_ITEM('CUTTING PART LINE')
);
#151=PRESENTATION_LAYER_ASSIGNMENT('1','Layer 1',(#250,#251,#252,#253,#149,
#187,#188,#189,#52,#53,#54));
#152=STYLED_ITEM('',(#163),#250);
#153=STYLED_ITEM('',(#164),#251);
#154=STYLED_ITEM('',(#165),#252);
#155=STYLED_ITEM('',(#166),#253);
#156=STYLED_ITEM('',(#167),#149);
#157=STYLED_ITEM('',(#168),#187);
#158=STYLED_ITEM('',(#169),#188);
#159=STYLED_ITEM('',(#170),#189);
#160=STYLED_ITEM('',(#171),#52);
#161=STYLED_ITEM('',(#172),#53);
#162=STYLED_ITEM('',(#173),#54);
#163=PRESENTATION_STYLE_ASSIGNMENT((#174));
#164=PRESENTATION_STYLE_ASSIGNMENT((#175));
#165=PRESENTATION_STYLE_ASSIGNMENT((#176));
#166=PRESENTATION_STYLE_ASSIGNMENT((#177));
#167=PRESENTATION_STYLE_ASSIGNMENT((#140));
#168=PRESENTATION_STYLE_ASSIGNMENT((#141));
#169=PRESENTATION_STYLE_ASSIGNMENT((#142));
#170=PRESENTATION_STYLE_ASSIGNMENT((#143));
#171=PRESENTATION_STYLE_ASSIGNMENT((#37));
#172=PRESENTATION_STYLE_ASSIGNMENT((#38));
#173=PRESENTATION_STYLE_ASSIGNMENT((#39));
#174=POINT_STYLE('',#178,POSITIVE_LENGTH_MEASURE(3.),#182);
#175=POINT_STYLE('',#179,POSITIVE_LENGTH_MEASURE(3.),#182);
#176=POINT_STYLE('',#180,POSITIVE_LENGTH_MEASURE(3.),#182);
#177=POINT_STYLE('',#181,POSITIVE_LENGTH_MEASURE(3.),#183);
#178=PRE_DEFINED_POINT_MARKER_SYMBOL('plus');
#179=PRE_DEFINED_POINT_MARKER_SYMBOL('plus');
#180=PRE_DEFINED_POINT_MARKER_SYMBOL('plus');
#181=PRE_DEFINED_POINT_MARKER_SYMBOL('plus');
#182=COLOUR_RGB('Pale Maroon',0.811749446860456,0.603921568627451,0.611749446860456);
#183=COLOUR_RGB('Medium Royal',0.2,0.4,0.8);
#184=COLOUR_RGB('Medium Gray',0.490196078431373,0.490196078431373,0.490196078431373);
#185=COLOUR_RGB('Light Gray',0.8,0.8,0.8);
#186=AXIS2_PLACEMENT_3D('',#249,#207,#208);
#187=AXIS2_PLACEMENT_3D('PCS',#267,#209,#210);
#188=AXIS2_PLACEMENT_3D('MCS',#268,#211,#212);
#189=AXIS2_PLACEMENT_3D('CIP',#269,#213,#214);
#190=AXIS2_PLACEMENT_3D('',#270,#215,#216);
#191=AXIS2_PLACEMENT_3D('',#272,#217,#218);
#192=AXIS2_PLACEMENT_3D('',#273,#219,#220);
#193=AXIS2_PLACEMENT_3D('',#275,#221,#222);
#194=AXIS2_PLACEMENT_3D('',#276,#223,#224);
#195=AXIS2_PLACEMENT_3D('',#278,#225,#226);
#196=AXIS2_PLACEMENT_3D('',#279,#227,#228);
#197=AXIS2_PLACEMENT_3D('',#280,#229,#230);
#198=AXIS2_PLACEMENT_3D('',#282,#231,#232);
#199=AXIS2_PLACEMENT_3D('',#284,#233,#234);
#200=AXIS2_PLACEMENT_3D('',#285,#235,#236);
#201=AXIS2_PLACEMENT_3D('',#286,#237,#238);
#202=AXIS2_PLACEMENT_3D('',#287,#239,#240);
#203=AXIS2_PLACEMENT_3D('',#289,#241,#242);
#204=AXIS2_PLACEMENT_3D('',#290,#243,#244);
#205=AXIS2_PLACEMENT_3D('',#292,#245,#246);
#206=AXIS2_PLACEMENT_3D('',#293,#247,#248);
#207=DIRECTION('',(0.,0.,1.));
#208=DIRECTION('',(1.,0.,0.));
#209=DIRECTION('',(0.,0.,1.));
#210=DIRECTION('',(1.,0.,0.));
#211=DIRECTION('',(0.,0.,1.));
#212=DIRECTION('',(1.,0.,0.));
#213=DIRECTION('',(0.,0.,1.));
#214=DIRECTION('',(1.,0.,0.));
#215=DIRECTION('',(0.,0.,-1.));
#216=DIRECTION('',(-1.,0.,0.));
#217=DIRECTION('',(0.,0.,1.));
#218=DIRECTION('',(-1.,0.,0.));
#219=DIRECTION('',(0.,0.,-1.));
#220=DIRECTION('',(-1.,0.,0.));
#221=DIRECTION('',(0.,0.,-1.));
#222=DIRECTION('',(1.,0.,-2.06202736056281E-17));
#223=DIRECTION('',(0.,0.,-1.));
#224=DIRECTION('',(1.,0.,0.));
#225=DIRECTION('',(0.,0.,-1.));
#226=DIRECTION('',(1.,0.,0.));
#227=DIRECTION('',(0.,0.,1.));
#228=DIRECTION('',(-1.,0.,0.));
#229=DIRECTION('',(0.,0.,-1.));
#230=DIRECTION('',(-1.,0.,0.));
#231=DIRECTION('',(0.,0.,1.));
#232=DIRECTION('',(1.,0.,0.));
#233=DIRECTION('',(0.,0.,-1.));
#234=DIRECTION('',(1.,0.,0.));
#235=DIRECTION('',(0.,0.,-1.));
#236=DIRECTION('',(1.,0.,0.));
#237=DIRECTION('',(0.,0.,1.));
#238=DIRECTION('',(-1.,0.,0.));
#239=DIRECTION('',(0.,0.,-1.));
#240=DIRECTION('',(-1.,0.,0.));
#241=DIRECTION('',(-3.69778549322349E-32,0.,-1.));
#242=DIRECTION('',(1.,0.,0.));
#243=DIRECTION('',(0.,0.,1.));
#244=DIRECTION('',(-1.,0.,0.));
#245=DIRECTION('',(0.,0.,-1.));
#246=DIRECTION('',(1.,0.,-5.723074758287E-15));
#247=DIRECTION('',(0.,0.,-1.));
#248=DIRECTION('',(1.,0.,0.));
#249=CARTESIAN_POINT('',(0.,0.,0.));
#250=CARTESIAN_POINT('',(0.,0.,45.237));
#251=CARTESIAN_POINT('',(0.,0.,0.));
#252=CARTESIAN_POINT('',(0.,0.,-30.963));
#253=CARTESIAN_POINT('CRP',(-9.525,0.,-30.963));
#254=CARTESIAN_POINT('',(-9.52222943485837,0.,-5.56300000000221));
#255=CARTESIAN_POINT('',(-9.52315290821423,0.,-10.8541125246357));
#256=CARTESIAN_POINT('',(-9.5240763815701,0.,-16.1452250492691));
#257=CARTESIAN_POINT('',(-9.52499985492596,0.,-21.4363375738993));
#258=CARTESIAN_POINT('',(-9.5259738163606,0.,-27.0167254785347));
#259=CARTESIAN_POINT('',(-5.58038798963298,0.,-30.963));
#260=CARTESIAN_POINT('',(-5.83238038093928E-16,0.,-30.963));
#261=CARTESIAN_POINT('',(0.,0.,-22.4963333333333));
#262=CARTESIAN_POINT('',(0.,0.,-14.0296666666667));
#263=CARTESIAN_POINT('',(0.,0.,-5.563));
#264=CARTESIAN_POINT('',(-3.17407647828612,0.,-5.563));
#265=CARTESIAN_POINT('',(-6.34815295657225,0.,-5.563));
#266=CARTESIAN_POINT('',(-9.52222943485837,0.,-5.563));
#267=CARTESIAN_POINT('',(0.,0.,45.237));
#268=CARTESIAN_POINT('',(0.,0.,0.));
#269=CARTESIAN_POINT('',(0.,0.,-30.963));
#270=CARTESIAN_POINT('',(0.,0.,45.237));
#271=CARTESIAN_POINT('',(-8.9154,0.,45.237));
#272=CARTESIAN_POINT('',(8.9154,0.,45.237));
#273=CARTESIAN_POINT('',(0.,0.,44.6274));
#274=CARTESIAN_POINT('',(-9.525,0.,44.6274));
#275=CARTESIAN_POINT('',(0.,0.,44.6274));
#276=CARTESIAN_POINT('',(0.,0.,0.));
#277=CARTESIAN_POINT('',(9.525,0.,0.));
#278=CARTESIAN_POINT('',(0.,0.,0.));
#279=CARTESIAN_POINT('',(0.,0.,0.));
#280=CARTESIAN_POINT('',(0.,0.,-5.56299951644518));
#281=CARTESIAN_POINT('',(-9.525,0.,-5.56299951644518));
#282=CARTESIAN_POINT('',(0.,0.,0.));
#283=CARTESIAN_POINT('',(9.525,0.,0.));
#284=CARTESIAN_POINT('',(0.,0.,0.));
#285=CARTESIAN_POINT('',(9.52222943485837,0.,-5.5629997582226));
#286=CARTESIAN_POINT('',(0.,0.,0.));
#287=CARTESIAN_POINT('',(0.,0.,-21.4363375738959));
#288=CARTESIAN_POINT('',(-9.52499985492596,0.,-21.4363375738959));
#289=CARTESIAN_POINT('',(0.,0.,-21.438));
#290=CARTESIAN_POINT('',(0.,0.,-5.56300000000002));
#291=CARTESIAN_POINT('',(-9.52222943485837,0.,-5.56300000000002));
#292=CARTESIAN_POINT('',(0.,0.,-21.4363375738959));
#293=CARTESIAN_POINT('',(0.,0.,-5.563));
#294=MECHANICAL_DESIGN_GEOMETRIC_PRESENTATION_REPRESENTATION('',(#152,#153,
#154,#155,#156,#157,#158,#159,#160,#161,#162),#295);
#295=(
GEOMETRIC_REPRESENTATION_CONTEXT(3)
GLOBAL_UNCERTAINTY_ASSIGNED_CONTEXT((#296))
GLOBAL_UNIT_ASSIGNED_CONTEXT((#302,#298,#297))
REPRESENTATION_CONTEXT('SB638.750D3B','TOP_LEVEL_ASSEMBLY_PART')
);
#296=UNCERTAINTY_MEASURE_WITH_UNIT(LENGTH_MEASURE(2.E-5),#302,
'DISTANCE_ACCURACY_VALUE','Maximum Tolerance applied to model');
#297=(
NAMED_UNIT(*)
SI_UNIT($,.STERADIAN.)
SOLID_ANGLE_UNIT()
);
#298=(
CONVERSION_BASED_UNIT('DEGREE',#300)
NAMED_UNIT(#299)
PLANE_ANGLE_UNIT()
);
#299=DIMENSIONAL_EXPONENTS(0.,0.,0.,0.,0.,0.,0.);
#300=PLANE_ANGLE_MEASURE_WITH_UNIT(PLANE_ANGLE_MEASURE(0.0174532925),#301);
#301=(
NAMED_UNIT(*)
PLANE_ANGLE_UNIT()
SI_UNIT($,.RADIAN.)
);
#302=(
LENGTH_UNIT()
NAMED_UNIT(*)
SI_UNIT(.MILLI.,.METRE.)
);
ENDSEC;
END-ISO-10303-21;
