ISO-10303-21;
HEADER;
/* Generated by software containing ST-Developer
 * from STEP Tools, Inc. (www.steptools.com) 
 */
/* OPTION: using custom schema-name function */

FILE_DESCRIPTION(
/* description */ (''),
/* implementation_level */ '2;1');

FILE_NAME(
/* name */ 'S638R.625D1R060.0Z6_Basic.stp',
/* time_stamp */ '2022-03-02T12:52:17+05:00',
/* author */ (''),
/* organization */ (''),
/* preprocessor_version */ 'ST-DEVELOPER v16.7',
/* originating_system */ 'SIEMENS PLM Software NX 12.0',
/* authorisation */ '');

FILE_SCHEMA (('AUTOMOTIVE_DESIGN { 1 0 10303 214 3 1 1 1 }'));
ENDSEC;

DATA;
#10=CONSTRUCTIVE_GEOMETRY_REPRESENTATION_RELATIONSHIP(
'supplemental geometry','',#34,#11);
#11=CONSTRUCTIVE_GEOMETRY_REPRESENTATION('supplemental geometry',(#366,
#367,#368),#595);
#12=GEOMETRICALLY_BOUNDED_WIREFRAME_SHAPE_REPRESENTATION(
'S638R.625D1R060.0Z6_Basic-None',(#35),#595);
#13=PROPERTY_DEFINITION_REPRESENTATION(#17,#15);
#14=PROPERTY_DEFINITION_REPRESENTATION(#18,#16);
#15=REPRESENTATION('',(#19),#595);
#16=REPRESENTATION('',(#20),#595);
#17=PROPERTY_DEFINITION('pmi validation property','',#25);
#18=PROPERTY_DEFINITION('pmi validation property','',#25);
#19=VALUE_REPRESENTATION_ITEM('number of annotations',COUNT_MEASURE(0.));
#20=VALUE_REPRESENTATION_ITEM('number of views',COUNT_MEASURE(0.));
#21=SHAPE_REPRESENTATION_RELATIONSHIP('None',
'relationship between S638R.625D1R060.0Z6_Basic-None and S638R.625D1R0
60.0Z6_Basic-None',#34,#23);
#22=SHAPE_REPRESENTATION_RELATIONSHIP('None',
'relationship between S638R.625D1R060.0Z6_Basic-None and S638R.625D1R0
60.0Z6_Basic-None',#34,#12);
#23=ADVANCED_BREP_SHAPE_REPRESENTATION('S638R.625D1R060.0Z6_Basic-None',
(#58,#59,#60,#61),#595);
#24=SHAPE_DEFINITION_REPRESENTATION(#25,#34);
#25=PRODUCT_DEFINITION_SHAPE('','',#26);
#26=PRODUCT_DEFINITION(' ','',#28,#27);
#27=PRODUCT_DEFINITION_CONTEXT('part definition',#33,'design');
#28=PRODUCT_DEFINITION_FORMATION_WITH_SPECIFIED_SOURCE(' ',' ',#30,
 .NOT_KNOWN.);
#29=PRODUCT_RELATED_PRODUCT_CATEGORY('part','',(#30));
#30=PRODUCT('inpu0964B760k3n4','inpu0964B760k3n4',' ',(#31));
#31=PRODUCT_CONTEXT(' ',#33,'mechanical');
#32=APPLICATION_PROTOCOL_DEFINITION('international standard',
'automotive_design',2010,#33);
#33=APPLICATION_CONTEXT(
'core data for automotive mechanical design processes');
#34=SHAPE_REPRESENTATION('S638R.625D1R060.0Z6_Basic-None',(#364),#595);
#35=GEOMETRIC_CURVE_SET('None',(#499,#500,#501,#502,#283,#284,#285,#286,
#287,#288));
#36=TOROIDAL_SURFACE('',#388,6.41336105989608,1.524);
#37=TOROIDAL_SURFACE('',#401,6.41336105989608,1.524);
#38=SURFACE_STYLE_USAGE(.BOTH.,#42);
#39=SURFACE_STYLE_USAGE(.BOTH.,#43);
#40=SURFACE_STYLE_USAGE(.BOTH.,#44);
#41=SURFACE_STYLE_USAGE(.BOTH.,#45);
#42=SURFACE_SIDE_STYLE('',(#46));
#43=SURFACE_SIDE_STYLE('',(#47));
#44=SURFACE_SIDE_STYLE('',(#48));
#45=SURFACE_SIDE_STYLE('',(#49));
#46=SURFACE_STYLE_FILL_AREA(#50);
#47=SURFACE_STYLE_FILL_AREA(#51);
#48=SURFACE_STYLE_FILL_AREA(#52);
#49=SURFACE_STYLE_FILL_AREA(#53);
#50=FILL_AREA_STYLE('',(#54));
#51=FILL_AREA_STYLE('',(#55));
#52=FILL_AREA_STYLE('',(#56));
#53=FILL_AREA_STYLE('',(#57));
#54=FILL_AREA_STYLE_COLOUR('',#362);
#55=FILL_AREA_STYLE_COLOUR('',#362);
#56=FILL_AREA_STYLE_COLOUR('',#363);
#57=FILL_AREA_STYLE_COLOUR('',#363);
#58=MANIFOLD_SOLID_BREP('NOCUT',#62);
#59=MANIFOLD_SOLID_BREP('NOCUT',#63);
#60=MANIFOLD_SOLID_BREP('CUT',#64);
#61=MANIFOLD_SOLID_BREP('CUT',#65);
#62=CLOSED_SHELL('',(#79,#80,#81,#82));
#63=CLOSED_SHELL('',(#83,#84,#85));
#64=CLOSED_SHELL('',(#86,#87,#88,#89,#90));
#65=CLOSED_SHELL('',(#91,#92,#93,#94,#95));
#66=CYLINDRICAL_SURFACE('',#374,7.9375);
#67=CYLINDRICAL_SURFACE('',#378,7.9375);
#68=CONICAL_SURFACE('',#372,7.9375,45.0000000000004);
#69=CONICAL_SURFACE('',#383,1.01163907243768E-15,87.5);
#70=CONICAL_SURFACE('',#391,7.93749998839408,0.00999999999999984);
#71=CONICAL_SURFACE('',#397,7.93749998839408,0.00999999999999984);
#72=CONICAL_SURFACE('',#402,1.01163907243768E-15,87.5);
#73=FACE_BOUND('',#119,.T.);
#74=FACE_BOUND('',#120,.T.);
#75=FACE_BOUND('',#121,.T.);
#76=FACE_BOUND('',#122,.T.);
#77=FACE_BOUND('',#124,.T.);
#78=FACE_BOUND('',#125,.T.);
#79=ADVANCED_FACE('',(#104),#96,.T.);
#80=ADVANCED_FACE('',(#73,#74),#68,.T.);
#81=ADVANCED_FACE('',(#75,#76),#66,.T.);
#82=ADVANCED_FACE('',(#105),#97,.F.);
#83=ADVANCED_FACE('',(#77,#78),#67,.T.);
#84=ADVANCED_FACE('',(#106),#98,.T.);
#85=ADVANCED_FACE('',(#107),#99,.T.);
#86=ADVANCED_FACE('',(#108),#69,.F.);
#87=ADVANCED_FACE('',(#109),#36,.T.);
#88=ADVANCED_FACE('',(#110),#70,.T.);
#89=ADVANCED_FACE('',(#111),#100,.F.);
#90=ADVANCED_FACE('',(#112),#101,.T.);
#91=ADVANCED_FACE('',(#113),#102,.F.);
#92=ADVANCED_FACE('',(#114),#71,.T.);
#93=ADVANCED_FACE('',(#115),#37,.T.);
#94=ADVANCED_FACE('',(#116),#72,.F.);
#95=ADVANCED_FACE('',(#117),#103,.F.);
#96=PLANE('',#370);
#97=PLANE('',#375);
#98=PLANE('',#379);
#99=PLANE('',#380);
#100=PLANE('',#392);
#101=PLANE('',#393);
#102=PLANE('',#395);
#103=PLANE('',#403);
#104=FACE_OUTER_BOUND('',#118,.T.);
#105=FACE_OUTER_BOUND('',#123,.T.);
#106=FACE_OUTER_BOUND('',#126,.T.);
#107=FACE_OUTER_BOUND('',#127,.T.);
#108=FACE_OUTER_BOUND('',#128,.T.);
#109=FACE_OUTER_BOUND('',#129,.T.);
#110=FACE_OUTER_BOUND('',#130,.T.);
#111=FACE_OUTER_BOUND('',#131,.T.);
#112=FACE_OUTER_BOUND('',#132,.T.);
#113=FACE_OUTER_BOUND('',#133,.T.);
#114=FACE_OUTER_BOUND('',#134,.T.);
#115=FACE_OUTER_BOUND('',#135,.T.);
#116=FACE_OUTER_BOUND('',#136,.T.);
#117=FACE_OUTER_BOUND('',#137,.T.);
#118=EDGE_LOOP('',(#138));
#119=EDGE_LOOP('',(#139));
#120=EDGE_LOOP('',(#140));
#121=EDGE_LOOP('',(#141));
#122=EDGE_LOOP('',(#142));
#123=EDGE_LOOP('',(#143));
#124=EDGE_LOOP('',(#144));
#125=EDGE_LOOP('',(#145));
#126=EDGE_LOOP('',(#146));
#127=EDGE_LOOP('',(#147));
#128=EDGE_LOOP('',(#148,#149,#150,#151));
#129=EDGE_LOOP('',(#152,#153,#154,#155,#156,#157));
#130=EDGE_LOOP('',(#158,#159,#160,#161,#162,#163));
#131=EDGE_LOOP('',(#164,#165,#166));
#132=EDGE_LOOP('',(#167,#168,#169,#170,#171,#172,#173));
#133=EDGE_LOOP('',(#174,#175));
#134=EDGE_LOOP('',(#176,#177,#178,#179));
#135=EDGE_LOOP('',(#180,#181,#182,#183));
#136=EDGE_LOOP('',(#184,#185,#186));
#137=EDGE_LOOP('',(#187,#188,#189,#190,#191,#192,#193));
#138=ORIENTED_EDGE('',*,*,#216,.F.);
#139=ORIENTED_EDGE('',*,*,#216,.T.);
#140=ORIENTED_EDGE('',*,*,#217,.F.);
#141=ORIENTED_EDGE('',*,*,#218,.T.);
#142=ORIENTED_EDGE('',*,*,#217,.T.);
#143=ORIENTED_EDGE('',*,*,#218,.F.);
#144=ORIENTED_EDGE('',*,*,#219,.F.);
#145=ORIENTED_EDGE('',*,*,#220,.T.);
#146=ORIENTED_EDGE('',*,*,#219,.T.);
#147=ORIENTED_EDGE('',*,*,#220,.F.);
#148=ORIENTED_EDGE('',*,*,#221,.F.);
#149=ORIENTED_EDGE('',*,*,#222,.T.);
#150=ORIENTED_EDGE('',*,*,#223,.T.);
#151=ORIENTED_EDGE('',*,*,#224,.F.);
#152=ORIENTED_EDGE('',*,*,#222,.F.);
#153=ORIENTED_EDGE('',*,*,#225,.F.);
#154=ORIENTED_EDGE('',*,*,#226,.T.);
#155=ORIENTED_EDGE('',*,*,#227,.T.);
#156=ORIENTED_EDGE('',*,*,#228,.F.);
#157=ORIENTED_EDGE('',*,*,#223,.F.);
#158=ORIENTED_EDGE('',*,*,#226,.F.);
#159=ORIENTED_EDGE('',*,*,#229,.F.);
#160=ORIENTED_EDGE('',*,*,#230,.T.);
#161=ORIENTED_EDGE('',*,*,#231,.T.);
#162=ORIENTED_EDGE('',*,*,#232,.F.);
#163=ORIENTED_EDGE('',*,*,#227,.F.);
#164=ORIENTED_EDGE('',*,*,#233,.F.);
#165=ORIENTED_EDGE('',*,*,#231,.F.);
#166=ORIENTED_EDGE('',*,*,#230,.F.);
#167=ORIENTED_EDGE('',*,*,#225,.T.);
#168=ORIENTED_EDGE('',*,*,#221,.T.);
#169=ORIENTED_EDGE('',*,*,#224,.T.);
#170=ORIENTED_EDGE('',*,*,#228,.T.);
#171=ORIENTED_EDGE('',*,*,#232,.T.);
#172=ORIENTED_EDGE('',*,*,#233,.T.);
#173=ORIENTED_EDGE('',*,*,#229,.T.);
#174=ORIENTED_EDGE('',*,*,#234,.F.);
#175=ORIENTED_EDGE('',*,*,#235,.F.);
#176=ORIENTED_EDGE('',*,*,#236,.F.);
#177=ORIENTED_EDGE('',*,*,#237,.F.);
#178=ORIENTED_EDGE('',*,*,#238,.F.);
#179=ORIENTED_EDGE('',*,*,#234,.T.);
#180=ORIENTED_EDGE('',*,*,#239,.F.);
#181=ORIENTED_EDGE('',*,*,#240,.F.);
#182=ORIENTED_EDGE('',*,*,#241,.F.);
#183=ORIENTED_EDGE('',*,*,#237,.T.);
#184=ORIENTED_EDGE('',*,*,#240,.T.);
#185=ORIENTED_EDGE('',*,*,#242,.F.);
#186=ORIENTED_EDGE('',*,*,#243,.F.);
#187=ORIENTED_EDGE('',*,*,#239,.T.);
#188=ORIENTED_EDGE('',*,*,#236,.T.);
#189=ORIENTED_EDGE('',*,*,#235,.T.);
#190=ORIENTED_EDGE('',*,*,#238,.T.);
#191=ORIENTED_EDGE('',*,*,#241,.T.);
#192=ORIENTED_EDGE('',*,*,#243,.T.);
#193=ORIENTED_EDGE('',*,*,#242,.T.);
#194=VERTEX_POINT('',#528);
#195=VERTEX_POINT('',#531);
#196=VERTEX_POINT('',#534);
#197=VERTEX_POINT('',#538);
#198=VERTEX_POINT('',#540);
#199=VERTEX_POINT('',#545);
#200=VERTEX_POINT('',#546);
#201=VERTEX_POINT('',#548);
#202=VERTEX_POINT('',#550);
#203=VERTEX_POINT('',#554);
#204=VERTEX_POINT('',#556);
#205=VERTEX_POINT('',#558);
#206=VERTEX_POINT('',#562);
#207=VERTEX_POINT('',#564);
#208=VERTEX_POINT('',#566);
#209=VERTEX_POINT('',#573);
#210=VERTEX_POINT('',#574);
#211=VERTEX_POINT('',#578);
#212=VERTEX_POINT('',#580);
#213=VERTEX_POINT('',#584);
#214=VERTEX_POINT('',#586);
#215=VERTEX_POINT('',#590);
#216=EDGE_CURVE('',#194,#194,#247,.T.);
#217=EDGE_CURVE('',#195,#195,#248,.T.);
#218=EDGE_CURVE('',#196,#196,#249,.T.);
#219=EDGE_CURVE('',#197,#197,#250,.T.);
#220=EDGE_CURVE('',#198,#198,#251,.T.);
#221=EDGE_CURVE('',#199,#200,#293,.T.);
#222=EDGE_CURVE('',#199,#201,#252,.T.);
#223=EDGE_CURVE('',#201,#202,#253,.T.);
#224=EDGE_CURVE('',#200,#202,#294,.T.);
#225=EDGE_CURVE('',#203,#199,#254,.T.);
#226=EDGE_CURVE('',#203,#204,#255,.T.);
#227=EDGE_CURVE('',#204,#205,#256,.T.);
#228=EDGE_CURVE('',#202,#205,#257,.T.);
#229=EDGE_CURVE('',#206,#203,#295,.T.);
#230=EDGE_CURVE('',#206,#207,#258,.T.);
#231=EDGE_CURVE('',#207,#208,#259,.T.);
#232=EDGE_CURVE('',#205,#208,#296,.T.);
#233=EDGE_CURVE('',#208,#206,#297,.T.);
#234=EDGE_CURVE('',#209,#210,#260,.T.);
#235=EDGE_CURVE('',#210,#209,#298,.T.);
#236=EDGE_CURVE('',#211,#210,#299,.T.);
#237=EDGE_CURVE('',#212,#211,#261,.T.);
#238=EDGE_CURVE('',#209,#212,#300,.T.);
#239=EDGE_CURVE('',#213,#211,#262,.T.);
#240=EDGE_CURVE('',#214,#213,#263,.T.);
#241=EDGE_CURVE('',#212,#214,#264,.T.);
#242=EDGE_CURVE('',#215,#213,#301,.T.);
#243=EDGE_CURVE('',#214,#215,#302,.T.);
#244=DRAUGHTING_PRE_DEFINED_COLOUR('blue');
#245=(
BOUNDED_CURVE()
B_SPLINE_CURVE(3,(#508,#509,#510,#511,#512,#513,#514,#515,#516,#517,#518,
#519,#520,#521,#522,#523),.UNSPECIFIED.,.T.,.F.)
B_SPLINE_CURVE_WITH_KNOTS((4,3,3,3,3,4),(0.,0.407672280735465,0.432929683030835,
0.498139330471405,0.918598134814229,1.),.UNSPECIFIED.)
CURVE()
GEOMETRIC_REPRESENTATION_ITEM()
RATIONAL_B_SPLINE_CURVE((1.,1.,1.,1.,0.794300010002007,0.794300010002007,
1.,1.,1.,1.,1.,1.,1.,1.,1.,1.))
REPRESENTATION_ITEM('CUTTING PART LINE')
);
#246=CIRCLE('',#365,1.524);
#247=CIRCLE('',#369,7.32789999999999);
#248=CIRCLE('',#371,7.9375);
#249=CIRCLE('',#373,7.9375);
#250=CIRCLE('',#376,7.9375);
#251=CIRCLE('',#377,7.9375);
#252=CIRCLE('',#381,6.34688511355131);
#253=CIRCLE('',#382,6.34688511355131);
#254=CIRCLE('',#384,1.524);
#255=CIRCLE('',#385,7.93736103668424);
#256=CIRCLE('',#386,7.93736103668424);
#257=CIRCLE('',#387,1.524);
#258=CIRCLE('',#389,7.93042915913552);
#259=CIRCLE('',#390,7.93042915913552);
#260=CIRCLE('',#394,7.93042915913552);
#261=CIRCLE('',#396,7.93736103668424);
#262=CIRCLE('',#398,1.524);
#263=CIRCLE('',#399,6.34688511355131);
#264=CIRCLE('',#400,1.524);
#265=CURVE_STYLE('',#274,POSITIVE_LENGTH_MEASURE(0.18),#361);
#266=CURVE_STYLE('',#275,POSITIVE_LENGTH_MEASURE(0.18),#361);
#267=CURVE_STYLE('',#276,POSITIVE_LENGTH_MEASURE(0.18),#361);
#268=CURVE_STYLE('',#277,POSITIVE_LENGTH_MEASURE(0.18),#361);
#269=CURVE_STYLE('',#278,POSITIVE_LENGTH_MEASURE(0.18),#361);
#270=CURVE_STYLE('',#279,POSITIVE_LENGTH_MEASURE(0.18),#244);
#271=CURVE_STYLE('',#280,POSITIVE_LENGTH_MEASURE(0.18),#360);
#272=CURVE_STYLE('',#281,POSITIVE_LENGTH_MEASURE(0.18),#360);
#273=CURVE_STYLE('',#282,POSITIVE_LENGTH_MEASURE(0.18),#360);
#274=DRAUGHTING_PRE_DEFINED_CURVE_FONT('continuous');
#275=DRAUGHTING_PRE_DEFINED_CURVE_FONT('continuous');
#276=DRAUGHTING_PRE_DEFINED_CURVE_FONT('continuous');
#277=DRAUGHTING_PRE_DEFINED_CURVE_FONT('continuous');
#278=DRAUGHTING_PRE_DEFINED_CURVE_FONT('continuous');
#279=DRAUGHTING_PRE_DEFINED_CURVE_FONT('continuous');
#280=DRAUGHTING_PRE_DEFINED_CURVE_FONT('continuous');
#281=DRAUGHTING_PRE_DEFINED_CURVE_FONT('continuous');
#282=DRAUGHTING_PRE_DEFINED_CURVE_FONT('continuous');
#283=TRIMMED_CURVE('',#289,(PARAMETER_VALUE(0.)),(PARAMETER_VALUE(1.)),
 .T.,.PARAMETER.);
#284=TRIMMED_CURVE('',#290,(PARAMETER_VALUE(0.)),(PARAMETER_VALUE(1.)),
 .T.,.PARAMETER.);
#285=TRIMMED_CURVE('',#291,(PARAMETER_VALUE(0.)),(PARAMETER_VALUE(1.)),
 .T.,.PARAMETER.);
#286=TRIMMED_CURVE('',#292,(PARAMETER_VALUE(0.)),(PARAMETER_VALUE(1.)),
 .T.,.PARAMETER.);
#287=TRIMMED_CURVE('',#246,(PARAMETER_VALUE(89.9900000002263)),(
PARAMETER_VALUE(182.5)),.T.,.PARAMETER.);
#288=TRIMMED_CURVE('CUTTING PART LINE',#245,(PARAMETER_VALUE(0.)),(
PARAMETER_VALUE(1.)),.T.,.PARAMETER.);
#289=LINE('',#503,#303);
#290=LINE('',#504,#304);
#291=LINE('',#505,#305);
#292=LINE('',#506,#306);
#293=LINE('',#544,#307);
#294=LINE('',#551,#308);
#295=LINE('',#561,#309);
#296=LINE('',#567,#310);
#297=LINE('',#569,#311);
#298=LINE('',#575,#312);
#299=LINE('',#577,#313);
#300=LINE('',#581,#314);
#301=LINE('',#589,#315);
#302=LINE('',#591,#316);
#303=VECTOR('',#406,6.35293169683229);
#304=VECTOR('',#407,39.7167329658997);
#305=VECTOR('',#408,7.93042915913552);
#306=VECTOR('',#409,40.9624368502544);
#307=VECTOR('',#442,1.);
#308=VECTOR('',#447,1.);
#309=VECTOR('',#460,1.);
#310=VECTOR('',#465,1.);
#311=VECTOR('',#468,1.);
#312=VECTOR('',#475,1.);
#313=VECTOR('',#478,1.);
#314=VECTOR('',#481,1.);
#315=VECTOR('',#492,1.);
#316=VECTOR('',#493,1.);
#317=PRESENTATION_LAYER_ASSIGNMENT('1','Layer 1',(#499,#500,#501,#502,#283,
#284,#285,#286,#287,#288,#366,#367,#368,#58,#59,#60,#61));
#318=STYLED_ITEM('',(#335),#499);
#319=STYLED_ITEM('',(#336),#500);
#320=STYLED_ITEM('',(#337),#501);
#321=STYLED_ITEM('',(#338),#502);
#322=STYLED_ITEM('',(#339),#283);
#323=STYLED_ITEM('',(#340),#284);
#324=STYLED_ITEM('',(#341),#285);
#325=STYLED_ITEM('',(#342),#286);
#326=STYLED_ITEM('',(#343),#287);
#327=STYLED_ITEM('',(#344),#288);
#328=STYLED_ITEM('',(#345),#366);
#329=STYLED_ITEM('',(#346),#367);
#330=STYLED_ITEM('',(#347),#368);
#331=STYLED_ITEM('',(#348),#58);
#332=STYLED_ITEM('',(#349),#59);
#333=STYLED_ITEM('',(#350),#60);
#334=STYLED_ITEM('',(#351),#61);
#335=PRESENTATION_STYLE_ASSIGNMENT((#352));
#336=PRESENTATION_STYLE_ASSIGNMENT((#353));
#337=PRESENTATION_STYLE_ASSIGNMENT((#354));
#338=PRESENTATION_STYLE_ASSIGNMENT((#355));
#339=PRESENTATION_STYLE_ASSIGNMENT((#265));
#340=PRESENTATION_STYLE_ASSIGNMENT((#266));
#341=PRESENTATION_STYLE_ASSIGNMENT((#267));
#342=PRESENTATION_STYLE_ASSIGNMENT((#268));
#343=PRESENTATION_STYLE_ASSIGNMENT((#269));
#344=PRESENTATION_STYLE_ASSIGNMENT((#270));
#345=PRESENTATION_STYLE_ASSIGNMENT((#271));
#346=PRESENTATION_STYLE_ASSIGNMENT((#272));
#347=PRESENTATION_STYLE_ASSIGNMENT((#273));
#348=PRESENTATION_STYLE_ASSIGNMENT((#38));
#349=PRESENTATION_STYLE_ASSIGNMENT((#39));
#350=PRESENTATION_STYLE_ASSIGNMENT((#40));
#351=PRESENTATION_STYLE_ASSIGNMENT((#41));
#352=POINT_STYLE('',#356,POSITIVE_LENGTH_MEASURE(3.),#360);
#353=POINT_STYLE('',#357,POSITIVE_LENGTH_MEASURE(3.),#360);
#354=POINT_STYLE('',#358,POSITIVE_LENGTH_MEASURE(3.),#360);
#355=POINT_STYLE('',#359,POSITIVE_LENGTH_MEASURE(3.),#361);
#356=PRE_DEFINED_POINT_MARKER_SYMBOL('plus');
#357=PRE_DEFINED_POINT_MARKER_SYMBOL('plus');
#358=PRE_DEFINED_POINT_MARKER_SYMBOL('plus');
#359=PRE_DEFINED_POINT_MARKER_SYMBOL('plus');
#360=COLOUR_RGB('Pale Maroon',0.811749446860456,0.603921568627451,0.611749446860456);
#361=COLOUR_RGB('Medium Royal',0.2,0.4,0.8);
#362=COLOUR_RGB('Medium Gray',0.490196078431373,0.490196078431373,0.490196078431373);
#363=COLOUR_RGB('Light Gray',0.8,0.8,0.8);
#364=AXIS2_PLACEMENT_3D('',#498,#404,#405);
#365=AXIS2_PLACEMENT_3D('',#507,#410,#411);
#366=AXIS2_PLACEMENT_3D('PCS',#524,#412,#413);
#367=AXIS2_PLACEMENT_3D('MCS',#525,#414,#415);
#368=AXIS2_PLACEMENT_3D('CIP',#526,#416,#417);
#369=AXIS2_PLACEMENT_3D('',#527,#418,#419);
#370=AXIS2_PLACEMENT_3D('',#529,#420,#421);
#371=AXIS2_PLACEMENT_3D('',#530,#422,#423);
#372=AXIS2_PLACEMENT_3D('',#532,#424,#425);
#373=AXIS2_PLACEMENT_3D('',#533,#426,#427);
#374=AXIS2_PLACEMENT_3D('',#535,#428,#429);
#375=AXIS2_PLACEMENT_3D('',#536,#430,#431);
#376=AXIS2_PLACEMENT_3D('',#537,#432,#433);
#377=AXIS2_PLACEMENT_3D('',#539,#434,#435);
#378=AXIS2_PLACEMENT_3D('',#541,#436,#437);
#379=AXIS2_PLACEMENT_3D('',#542,#438,#439);
#380=AXIS2_PLACEMENT_3D('',#543,#440,#441);
#381=AXIS2_PLACEMENT_3D('',#547,#443,#444);
#382=AXIS2_PLACEMENT_3D('',#549,#445,#446);
#383=AXIS2_PLACEMENT_3D('',#552,#448,#449);
#384=AXIS2_PLACEMENT_3D('',#553,#450,#451);
#385=AXIS2_PLACEMENT_3D('',#555,#452,#453);
#386=AXIS2_PLACEMENT_3D('',#557,#454,#455);
#387=AXIS2_PLACEMENT_3D('',#559,#456,#457);
#388=AXIS2_PLACEMENT_3D('',#560,#458,#459);
#389=AXIS2_PLACEMENT_3D('',#563,#461,#462);
#390=AXIS2_PLACEMENT_3D('',#565,#463,#464);
#391=AXIS2_PLACEMENT_3D('',#568,#466,#467);
#392=AXIS2_PLACEMENT_3D('',#570,#469,#470);
#393=AXIS2_PLACEMENT_3D('',#571,#471,#472);
#394=AXIS2_PLACEMENT_3D('',#572,#473,#474);
#395=AXIS2_PLACEMENT_3D('',#576,#476,#477);
#396=AXIS2_PLACEMENT_3D('',#579,#479,#480);
#397=AXIS2_PLACEMENT_3D('',#582,#482,#483);
#398=AXIS2_PLACEMENT_3D('',#583,#484,#485);
#399=AXIS2_PLACEMENT_3D('',#585,#486,#487);
#400=AXIS2_PLACEMENT_3D('',#587,#488,#489);
#401=AXIS2_PLACEMENT_3D('',#588,#490,#491);
#402=AXIS2_PLACEMENT_3D('',#592,#494,#495);
#403=AXIS2_PLACEMENT_3D('',#593,#496,#497);
#404=DIRECTION('',(0.,0.,1.));
#405=DIRECTION('',(1.,0.,0.));
#406=DIRECTION('',(-0.999048221581858,0.,-0.0436193873653358));
#407=DIRECTION('',(-0.000174532924313348,0.,-0.999999984769129));
#408=DIRECTION('',(1.,0.,0.));
#409=DIRECTION('',(0.,0.,1.));
#410=DIRECTION('',(0.,-1.,0.));
#411=DIRECTION('',(0.,0.,1.));
#412=DIRECTION('',(0.,0.,1.));
#413=DIRECTION('',(1.,0.,0.));
#414=DIRECTION('',(0.,0.,1.));
#415=DIRECTION('',(1.,0.,0.));
#416=DIRECTION('',(0.,0.,1.));
#417=DIRECTION('',(1.,0.,0.));
#418=DIRECTION('',(0.,0.,-1.));
#419=DIRECTION('',(-1.,0.,0.));
#420=DIRECTION('',(0.,0.,1.));
#421=DIRECTION('',(-1.,0.,0.));
#422=DIRECTION('',(0.,0.,-1.));
#423=DIRECTION('',(-1.,0.,0.));
#424=DIRECTION('',(0.,0.,-1.));
#425=DIRECTION('',(1.,0.,-2.06527505045912E-17));
#426=DIRECTION('',(0.,0.,1.));
#427=DIRECTION('',(1.,0.,0.));
#428=DIRECTION('',(0.,0.,-1.));
#429=DIRECTION('',(1.,0.,0.));
#430=DIRECTION('',(0.,0.,1.));
#431=DIRECTION('',(-1.,0.,0.));
#432=DIRECTION('',(0.,0.,-1.));
#433=DIRECTION('',(-1.,0.,0.));
#434=DIRECTION('',(0.,0.,-1.));
#435=DIRECTION('',(1.,0.,0.));
#436=DIRECTION('',(0.,0.,-1.));
#437=DIRECTION('',(1.,0.,0.));
#438=DIRECTION('',(0.,0.,-1.));
#439=DIRECTION('',(1.,0.,0.));
#440=DIRECTION('',(0.,0.,1.));
#441=DIRECTION('',(-1.,0.,0.));
#442=DIRECTION('',(0.,0.999048221581858,0.0436193873653362));
#443=DIRECTION('',(0.,0.,-1.));
#444=DIRECTION('',(-1.,0.,0.));
#445=DIRECTION('',(0.,0.,-1.));
#446=DIRECTION('',(-1.,0.,0.));
#447=DIRECTION('',(0.,0.999048221581858,-0.0436193873653362));
#448=DIRECTION('',(0.,0.,-1.));
#449=DIRECTION('',(1.,0.,-6.05917301173435E-19));
#450=DIRECTION('',(1.,0.,0.));
#451=DIRECTION('',(0.,0.,-0.999999999999998));
#452=DIRECTION('',(0.,0.,-1.));
#453=DIRECTION('',(1.,0.,0.));
#454=DIRECTION('',(0.,0.,-1.));
#455=DIRECTION('',(1.,0.,0.));
#456=DIRECTION('',(1.,0.,0.));
#457=DIRECTION('',(0.,0.,-0.999999999999998));
#458=DIRECTION('',(0.,0.,-1.));
#459=DIRECTION('',(-1.,0.,0.));
#460=DIRECTION('',(0.,-0.000174532924313334,-0.999999984769129));
#461=DIRECTION('',(0.,0.,-1.));
#462=DIRECTION('',(-1.,0.,0.));
#463=DIRECTION('',(0.,0.,-1.));
#464=DIRECTION('',(-1.,0.,0.));
#465=DIRECTION('',(0.,-0.000174532924313334,0.999999984769129));
#466=DIRECTION('',(0.,0.,-1.));
#467=DIRECTION('',(1.,0.,3.42153143425425E-15));
#468=DIRECTION('',(0.,-1.,0.));
#469=DIRECTION('',(0.,0.,-1.));
#470=DIRECTION('',(1.,0.,0.));
#471=DIRECTION('',(1.,0.,0.));
#472=DIRECTION('',(0.,0.,-1.));
#473=DIRECTION('',(0.,0.,-1.));
#474=DIRECTION('',(-1.,0.,0.));
#475=DIRECTION('',(0.,1.,0.));
#476=DIRECTION('',(0.,0.,-1.));
#477=DIRECTION('',(1.,0.,0.));
#478=DIRECTION('',(0.,0.000174532924313334,0.999999984769129));
#479=DIRECTION('',(0.,0.,-1.));
#480=DIRECTION('',(1.,0.,0.));
#481=DIRECTION('',(0.,0.000174532924313334,-0.999999984769129));
#482=DIRECTION('',(0.,0.,-1.));
#483=DIRECTION('',(1.,0.,3.42153143425425E-15));
#484=DIRECTION('',(-1.,0.,0.));
#485=DIRECTION('',(0.,0.,-0.999999999999998));
#486=DIRECTION('',(0.,0.,-1.));
#487=DIRECTION('',(-1.,0.,0.));
#488=DIRECTION('',(-1.,0.,0.));
#489=DIRECTION('',(0.,0.,-0.999999999999998));
#490=DIRECTION('',(0.,0.,-1.));
#491=DIRECTION('',(-1.,0.,0.));
#492=DIRECTION('',(0.,-0.999048221581858,-0.0436193873653362));
#493=DIRECTION('',(0.,-0.999048221581858,0.0436193873653362));
#494=DIRECTION('',(0.,0.,-1.));
#495=DIRECTION('',(1.,0.,-6.05917301173435E-19));
#496=DIRECTION('',(1.,0.,0.));
#497=DIRECTION('',(0.,0.,-1.));
#498=CARTESIAN_POINT('',(0.,0.,0.));
#499=CARTESIAN_POINT('',(0.,0.,45.237));
#500=CARTESIAN_POINT('',(0.,0.,0.));
#501=CARTESIAN_POINT('',(0.,0.,-43.663));
#502=CARTESIAN_POINT('CRP',(-7.9375,0.,-43.66227474485));
#503=CARTESIAN_POINT('',(1.00971427639127E-15,0.,-43.3504368502544));
#504=CARTESIAN_POINT('',(-7.93042915913553,0.,-2.38800000001049));
#505=CARTESIAN_POINT('',(-7.93042915913552,0.,-2.38800000000001));
#506=CARTESIAN_POINT('',(0.,0.,-43.3504368502544));
#507=CARTESIAN_POINT('',(-6.41336105989608,0.,-42.1049983491533));
#508=CARTESIAN_POINT('',(-7.93042915913553,0.,-2.38800000001049));
#509=CARTESIAN_POINT('',(-7.9327397849851,0.,-15.6269107870036));
#510=CARTESIAN_POINT('',(-7.93505041083467,0.,-28.8658215739967));
#511=CARTESIAN_POINT('',(-7.93736103668424,0.,-42.1047323609862));
#512=CARTESIAN_POINT('',(-7.93752231606759,0.,-43.0287951504421));
#513=CARTESIAN_POINT('',(-7.27006841405156,0.,-43.6678548922213));
#514=CARTESIAN_POINT('',(-6.34688511355131,0.,-43.6275478388441));
#515=CARTESIAN_POINT('',(-4.23125674236754,0.,-43.5351775093142));
#516=CARTESIAN_POINT('',(-2.11562837118377,0.,-43.4428071797843));
#517=CARTESIAN_POINT('',(4.44089209850063E-16,0.,-43.3504368502544));
#518=CARTESIAN_POINT('',(0.,0.,-29.6962912335029));
#519=CARTESIAN_POINT('',(0.,0.,-16.0421456167515));
#520=CARTESIAN_POINT('',(0.,0.,-2.38800000000001));
#521=CARTESIAN_POINT('',(-2.64347638637851,0.,-2.38800000000001));
#522=CARTESIAN_POINT('',(-5.28695277275701,0.,-2.38800000000001));
#523=CARTESIAN_POINT('',(-7.93042915913552,0.,-2.38800000000001));
#524=CARTESIAN_POINT('',(0.,0.,45.237));
#525=CARTESIAN_POINT('',(0.,0.,0.));
#526=CARTESIAN_POINT('',(0.,0.,-43.663));
#527=CARTESIAN_POINT('',(0.,0.,45.237));
#528=CARTESIAN_POINT('',(-7.32789999999999,0.,45.237));
#529=CARTESIAN_POINT('',(7.32789999999999,0.,45.237));
#530=CARTESIAN_POINT('',(0.,0.,44.6274));
#531=CARTESIAN_POINT('',(-7.9375,0.,44.6274));
#532=CARTESIAN_POINT('',(0.,0.,44.6274));
#533=CARTESIAN_POINT('',(0.,0.,0.));
#534=CARTESIAN_POINT('',(7.9375,0.,0.));
#535=CARTESIAN_POINT('',(0.,0.,0.));
#536=CARTESIAN_POINT('',(0.,0.,0.));
#537=CARTESIAN_POINT('',(0.,0.,-2.38800000000001));
#538=CARTESIAN_POINT('',(-7.9375,0.,-2.38800000000001));
#539=CARTESIAN_POINT('',(0.,0.,0.));
#540=CARTESIAN_POINT('',(7.9375,0.,0.));
#541=CARTESIAN_POINT('',(0.,0.,0.));
#542=CARTESIAN_POINT('',(7.93042915913552,0.,-2.38800000000001));
#543=CARTESIAN_POINT('',(0.,0.,0.));
#544=CARTESIAN_POINT('',(0.,0.,-43.3504368502544));
#545=CARTESIAN_POINT('',(0.,-6.34688511355179,-43.6275478388441));
#546=CARTESIAN_POINT('',(1.01163907243768E-15,0.,-43.3504368502544));
#547=CARTESIAN_POINT('',(0.,0.,-43.6275478388441));
#548=CARTESIAN_POINT('',(-6.34688511355131,0.,-43.6275478388441));
#549=CARTESIAN_POINT('',(0.,0.,-43.6275478388441));
#550=CARTESIAN_POINT('',(0.,6.34688511355179,-43.6275478388441));
#551=CARTESIAN_POINT('',(0.,0.,-43.3504368502544));
#552=CARTESIAN_POINT('',(0.,0.,-43.3504368502544));
#553=CARTESIAN_POINT('',(0.,-6.41336105989608,-42.1049983491533));
#554=CARTESIAN_POINT('',(0.,-7.93736103668424,-42.1047323609827));
#555=CARTESIAN_POINT('',(0.,0.,-42.1047323609827));
#556=CARTESIAN_POINT('',(-7.93736103668424,0.,-42.1047323609827));
#557=CARTESIAN_POINT('',(0.,0.,-42.1047323609827));
#558=CARTESIAN_POINT('',(0.,7.93736103668424,-42.1047323609827));
#559=CARTESIAN_POINT('',(0.,6.41336105989608,-42.1049983491533));
#560=CARTESIAN_POINT('',(0.,0.,-42.1049983491533));
#561=CARTESIAN_POINT('',(0.,0.,45435.6235932219));
#562=CARTESIAN_POINT('',(0.,-7.93042915913552,-2.38800000000001));
#563=CARTESIAN_POINT('',(0.,0.,-2.38800000000001));
#564=CARTESIAN_POINT('',(-7.93042915913552,0.,-2.38800000000001));
#565=CARTESIAN_POINT('',(0.,0.,-2.38800000000001));
#566=CARTESIAN_POINT('',(0.,7.93042915913552,-2.38800000000001));
#567=CARTESIAN_POINT('',(0.,0.,45435.6235932219));
#568=CARTESIAN_POINT('',(0.,0.,-42.9008670059117));
#569=CARTESIAN_POINT('',(0.,0.,-2.38800000000001));
#570=CARTESIAN_POINT('',(0.,0.,-2.38800000000001));
#571=CARTESIAN_POINT('',(0.,0.,-43.663));
#572=CARTESIAN_POINT('',(0.,0.,-2.38800000000001));
#573=CARTESIAN_POINT('',(0.,7.93042915913552,-2.38800000000001));
#574=CARTESIAN_POINT('',(0.,-7.93042915913552,-2.38800000000001));
#575=CARTESIAN_POINT('',(0.,0.,-2.38800000000001));
#576=CARTESIAN_POINT('',(0.,0.,-2.38800000000001));
#577=CARTESIAN_POINT('',(0.,0.,45435.6235932219));
#578=CARTESIAN_POINT('',(0.,-7.93736103668424,-42.1047323609827));
#579=CARTESIAN_POINT('',(0.,0.,-42.1047323609827));
#580=CARTESIAN_POINT('',(0.,7.93736103668424,-42.1047323609827));
#581=CARTESIAN_POINT('',(0.,0.,45435.6235932219));
#582=CARTESIAN_POINT('',(0.,0.,-42.9008670059117));
#583=CARTESIAN_POINT('',(0.,-6.41336105989608,-42.1049983491533));
#584=CARTESIAN_POINT('',(0.,-6.34688511355179,-43.6275478388441));
#585=CARTESIAN_POINT('',(0.,0.,-43.6275478388441));
#586=CARTESIAN_POINT('',(0.,6.34688511355179,-43.6275478388441));
#587=CARTESIAN_POINT('',(0.,6.41336105989608,-42.1049983491533));
#588=CARTESIAN_POINT('',(0.,0.,-42.1049983491533));
#589=CARTESIAN_POINT('',(0.,0.,-43.3504368502544));
#590=CARTESIAN_POINT('',(0.,0.,-43.3504368502544));
#591=CARTESIAN_POINT('',(0.,0.,-43.3504368502544));
#592=CARTESIAN_POINT('',(0.,0.,-43.3504368502544));
#593=CARTESIAN_POINT('',(0.,0.,-43.663));
#594=MECHANICAL_DESIGN_GEOMETRIC_PRESENTATION_REPRESENTATION('',(#318,#319,
#320,#321,#322,#323,#324,#325,#326,#327,#328,#329,#330,#331,#332,#333,#334),
#595);
#595=(
GEOMETRIC_REPRESENTATION_CONTEXT(3)
GLOBAL_UNCERTAINTY_ASSIGNED_CONTEXT((#596))
GLOBAL_UNIT_ASSIGNED_CONTEXT((#602,#598,#597))
REPRESENTATION_CONTEXT('S638R.625D1R060','TOP_LEVEL_ASSEMBLY_PART')
);
#596=UNCERTAINTY_MEASURE_WITH_UNIT(LENGTH_MEASURE(2.E-5),#602,
'DISTANCE_ACCURACY_VALUE','Maximum Tolerance applied to model');
#597=(
NAMED_UNIT(*)
SI_UNIT($,.STERADIAN.)
SOLID_ANGLE_UNIT()
);
#598=(
CONVERSION_BASED_UNIT('DEGREE',#600)
NAMED_UNIT(#599)
PLANE_ANGLE_UNIT()
);
#599=DIMENSIONAL_EXPONENTS(0.,0.,0.,0.,0.,0.,0.);
#600=PLANE_ANGLE_MEASURE_WITH_UNIT(PLANE_ANGLE_MEASURE(0.0174532925),#601);
#601=(
NAMED_UNIT(*)
PLANE_ANGLE_UNIT()
SI_UNIT($,.RADIAN.)
);
#602=(
LENGTH_UNIT()
NAMED_UNIT(*)
SI_UNIT(.MILLI.,.METRE.)
);
ENDSEC;
END-ISO-10303-21;
