ISO-10303-21;
HEADER;
/* Generated by software containing ST-Developer
 * from STEP Tools, Inc. (www.steptools.com) 
 */
/* OPTION: using custom schema-name function */

FILE_DESCRIPTION(
/* description */ (''),
/* implementation_level */ '2;1');

FILE_NAME(
/* name */ 'S638R.188F2R030.0Z6_Basic.stp',
/* time_stamp */ '2022-02-16T12:11:04+06:00',
/* author */ (''),
/* organization */ (''),
/* preprocessor_version */ 'ST-DEVELOPER v16.7',
/* originating_system */ 'SIEMENS PLM Software NX 12.0',
/* authorisation */ '');

FILE_SCHEMA (('AUTOMOTIVE_DESIGN { 1 0 10303 214 3 1 1 1 }'));
ENDSEC;

DATA;
#10=CONSTRUCTIVE_GEOMETRY_REPRESENTATION_RELATIONSHIP(
'supplemental geometry','',#26,#11);
#11=CONSTRUCTIVE_GEOMETRY_REPRESENTATION('supplemental geometry',(#204,
#205,#206),#334);
#12=GEOMETRICALLY_BOUNDED_WIREFRAME_SHAPE_REPRESENTATION(
'S638R.188F2R030.0Z6_Basic-None',(#27),#334);
#13=SHAPE_REPRESENTATION_RELATIONSHIP('None',
'relationship between S638R.188F2R030.0Z6_Basic-None and S638R.188F2R0
30.0Z6_Basic-None',#26,#15);
#14=SHAPE_REPRESENTATION_RELATIONSHIP('None',
'relationship between S638R.188F2R030.0Z6_Basic-None and S638R.188F2R0
30.0Z6_Basic-None',#26,#12);
#15=ADVANCED_BREP_SHAPE_REPRESENTATION('S638R.188F2R030.0Z6_Basic-None',
(#45,#46,#47),#334);
#16=SHAPE_DEFINITION_REPRESENTATION(#17,#26);
#17=PRODUCT_DEFINITION_SHAPE('','',#18);
#18=PRODUCT_DEFINITION(' ','',#20,#19);
#19=PRODUCT_DEFINITION_CONTEXT('part definition',#25,'design');
#20=PRODUCT_DEFINITION_FORMATION_WITH_SPECIFIED_SOURCE(' ',' ',#22,
 .NOT_KNOWN.);
#21=PRODUCT_RELATED_PRODUCT_CATEGORY('part','',(#22));
#22=PRODUCT('inpu18D0F11Ddw7c','inpu18D0F11Ddw7c',' ',(#23));
#23=PRODUCT_CONTEXT(' ',#25,'mechanical');
#24=APPLICATION_PROTOCOL_DEFINITION('international standard',
'automotive_design',2010,#25);
#25=APPLICATION_CONTEXT(
'core data for automotive mechanical design processes');
#26=SHAPE_REPRESENTATION('S638R.188F2R030.0Z6_Basic-None',(#203),#334);
#27=GEOMETRIC_CURVE_SET('None',(#279,#280,#281,#282,#166));
#28=CYLINDRICAL_SURFACE('',#219,3.175);
#29=CYLINDRICAL_SURFACE('',#224,2.38125);
#30=SURFACE_STYLE_USAGE(.BOTH.,#33);
#31=SURFACE_STYLE_USAGE(.BOTH.,#34);
#32=SURFACE_STYLE_USAGE(.BOTH.,#35);
#33=SURFACE_SIDE_STYLE('',(#36));
#34=SURFACE_SIDE_STYLE('',(#37));
#35=SURFACE_SIDE_STYLE('',(#38));
#36=SURFACE_STYLE_FILL_AREA(#39);
#37=SURFACE_STYLE_FILL_AREA(#40);
#38=SURFACE_STYLE_FILL_AREA(#41);
#39=FILL_AREA_STYLE('',(#42));
#40=FILL_AREA_STYLE('',(#43));
#41=FILL_AREA_STYLE('',(#44));
#42=FILL_AREA_STYLE_COLOUR('',#201);
#43=FILL_AREA_STYLE_COLOUR('',#202);
#44=FILL_AREA_STYLE_COLOUR('',#202);
#45=MANIFOLD_SOLID_BREP('CUT',#48);
#46=MANIFOLD_SOLID_BREP('NOCUT',#49);
#47=MANIFOLD_SOLID_BREP('NOCUT',#50);
#48=CLOSED_SHELL('',(#62,#63,#64,#65));
#49=CLOSED_SHELL('',(#66,#67,#68,#69));
#50=CLOSED_SHELL('',(#70,#71,#72,#73));
#51=PLANE('',#213);
#52=PLANE('',#215);
#53=PLANE('',#220);
#54=PLANE('',#222);
#55=PLANE('',#227);
#56=FACE_OUTER_BOUND('',#98,.T.);
#57=FACE_OUTER_BOUND('',#99,.T.);
#58=FACE_OUTER_BOUND('',#104,.T.);
#59=FACE_OUTER_BOUND('',#105,.T.);
#60=FACE_OUTER_BOUND('',#110,.T.);
#61=TOROIDAL_SURFACE('',#210,1.61925,0.761999999999998);
#62=ADVANCED_FACE('',(#79,#80),#74,.F.);
#63=ADVANCED_FACE('',(#81,#82),#61,.T.);
#64=ADVANCED_FACE('',(#83,#84),#75,.T.);
#65=ADVANCED_FACE('',(#56),#51,.F.);
#66=ADVANCED_FACE('',(#57),#52,.T.);
#67=ADVANCED_FACE('',(#85,#86),#76,.T.);
#68=ADVANCED_FACE('',(#87,#88),#28,.T.);
#69=ADVANCED_FACE('',(#58),#53,.F.);
#70=ADVANCED_FACE('',(#59),#54,.T.);
#71=ADVANCED_FACE('',(#89,#90),#29,.T.);
#72=ADVANCED_FACE('',(#91,#92),#77,.T.);
#73=ADVANCED_FACE('',(#60),#55,.T.);
#74=CONICAL_SURFACE('',#208,2.63468929776661E-15,87.5);
#75=CONICAL_SURFACE('',#212,2.38124999709852,0.00499999999998304);
#76=CONICAL_SURFACE('',#217,3.175,44.9999999999997);
#77=CONICAL_SURFACE('',#226,2.38125,10.);
#78=VERTEX_LOOP('',#130);
#79=FACE_BOUND('',#93,.T.);
#80=FACE_BOUND('',#78,.T.);
#81=FACE_BOUND('',#94,.T.);
#82=FACE_BOUND('',#95,.T.);
#83=FACE_BOUND('',#96,.T.);
#84=FACE_BOUND('',#97,.T.);
#85=FACE_BOUND('',#100,.T.);
#86=FACE_BOUND('',#101,.T.);
#87=FACE_BOUND('',#102,.T.);
#88=FACE_BOUND('',#103,.T.);
#89=FACE_BOUND('',#106,.T.);
#90=FACE_BOUND('',#107,.T.);
#91=FACE_BOUND('',#108,.T.);
#92=FACE_BOUND('',#109,.T.);
#93=EDGE_LOOP('',(#111));
#94=EDGE_LOOP('',(#112));
#95=EDGE_LOOP('',(#113));
#96=EDGE_LOOP('',(#114));
#97=EDGE_LOOP('',(#115));
#98=EDGE_LOOP('',(#116));
#99=EDGE_LOOP('',(#117));
#100=EDGE_LOOP('',(#118));
#101=EDGE_LOOP('',(#119));
#102=EDGE_LOOP('',(#120));
#103=EDGE_LOOP('',(#121));
#104=EDGE_LOOP('',(#122));
#105=EDGE_LOOP('',(#123));
#106=EDGE_LOOP('',(#124));
#107=EDGE_LOOP('',(#125));
#108=EDGE_LOOP('',(#126));
#109=EDGE_LOOP('',(#127));
#110=EDGE_LOOP('',(#128));
#111=ORIENTED_EDGE('',*,*,#139,.T.);
#112=ORIENTED_EDGE('',*,*,#140,.T.);
#113=ORIENTED_EDGE('',*,*,#139,.F.);
#114=ORIENTED_EDGE('',*,*,#141,.T.);
#115=ORIENTED_EDGE('',*,*,#140,.F.);
#116=ORIENTED_EDGE('',*,*,#141,.F.);
#117=ORIENTED_EDGE('',*,*,#142,.F.);
#118=ORIENTED_EDGE('',*,*,#142,.T.);
#119=ORIENTED_EDGE('',*,*,#143,.F.);
#120=ORIENTED_EDGE('',*,*,#143,.T.);
#121=ORIENTED_EDGE('',*,*,#144,.F.);
#122=ORIENTED_EDGE('',*,*,#144,.T.);
#123=ORIENTED_EDGE('',*,*,#145,.T.);
#124=ORIENTED_EDGE('',*,*,#146,.T.);
#125=ORIENTED_EDGE('',*,*,#145,.F.);
#126=ORIENTED_EDGE('',*,*,#147,.T.);
#127=ORIENTED_EDGE('',*,*,#146,.F.);
#128=ORIENTED_EDGE('',*,*,#147,.F.);
#129=VERTEX_POINT('',#303);
#130=VERTEX_POINT('',#304);
#131=VERTEX_POINT('',#307);
#132=VERTEX_POINT('',#310);
#133=VERTEX_POINT('',#314);
#134=VERTEX_POINT('',#317);
#135=VERTEX_POINT('',#320);
#136=VERTEX_POINT('',#324);
#137=VERTEX_POINT('',#327);
#138=VERTEX_POINT('',#330);
#139=EDGE_CURVE('',#129,#129,#148,.T.);
#140=EDGE_CURVE('',#131,#131,#149,.T.);
#141=EDGE_CURVE('',#132,#132,#150,.T.);
#142=EDGE_CURVE('',#133,#133,#151,.T.);
#143=EDGE_CURVE('',#134,#134,#152,.T.);
#144=EDGE_CURVE('',#135,#135,#153,.T.);
#145=EDGE_CURVE('',#136,#136,#154,.T.);
#146=EDGE_CURVE('',#137,#137,#155,.T.);
#147=EDGE_CURVE('',#138,#138,#156,.T.);
#148=CIRCLE('',#207,1.58601202682762);
#149=CIRCLE('',#209,2.38124999709852);
#150=CIRCLE('',#211,2.38062382239751);
#151=CIRCLE('',#214,2.8702);
#152=CIRCLE('',#216,3.175);
#153=CIRCLE('',#218,3.17500000000001);
#154=CIRCLE('',#221,2.38125);
#155=CIRCLE('',#223,2.38125);
#156=CIRCLE('',#225,3.17500000000001);
#157=CURVE_STYLE('',#162,POSITIVE_LENGTH_MEASURE(0.18),#161);
#158=CURVE_STYLE('',#163,POSITIVE_LENGTH_MEASURE(0.18),#199);
#159=CURVE_STYLE('',#164,POSITIVE_LENGTH_MEASURE(0.18),#199);
#160=CURVE_STYLE('',#165,POSITIVE_LENGTH_MEASURE(0.18),#199);
#161=DRAUGHTING_PRE_DEFINED_COLOUR('blue');
#162=DRAUGHTING_PRE_DEFINED_CURVE_FONT('continuous');
#163=DRAUGHTING_PRE_DEFINED_CURVE_FONT('continuous');
#164=DRAUGHTING_PRE_DEFINED_CURVE_FONT('continuous');
#165=DRAUGHTING_PRE_DEFINED_CURVE_FONT('continuous');
#166=TRIMMED_CURVE('CUTTING PART LINE',#167,(PARAMETER_VALUE(0.)),(
PARAMETER_VALUE(1.)),.T.,.PARAMETER.);
#167=(
BOUNDED_CURVE()
B_SPLINE_CURVE(3,(#283,#284,#285,#286,#287,#288,#289,#290,#291,#292,#293,
#294,#295,#296,#297,#298),.UNSPECIFIED.,.T.,.F.)
B_SPLINE_CURVE_WITH_KNOTS((4,3,3,3,3,4),(0.,0.35449346969762,0.415273042036924,
0.493702663470566,0.882388207589122,1.),.UNSPECIFIED.)
CURVE()
GEOMETRIC_REPRESENTATION_ITEM()
RATIONAL_B_SPLINE_CURVE((1.,1.,1.,1.,0.794321024033453,0.794321024033453,
1.,1.,1.,1.,1.,1.,1.,1.,1.,1.))
REPRESENTATION_ITEM('CUTTING PART LINE')
);
#168=PRESENTATION_LAYER_ASSIGNMENT('1','Layer 1',(#279,#280,#281,#282,#166,
#204,#205,#206,#45,#46,#47));
#169=STYLED_ITEM('',(#180),#279);
#170=STYLED_ITEM('',(#181),#280);
#171=STYLED_ITEM('',(#182),#281);
#172=STYLED_ITEM('',(#183),#282);
#173=STYLED_ITEM('',(#184),#166);
#174=STYLED_ITEM('',(#185),#204);
#175=STYLED_ITEM('',(#186),#205);
#176=STYLED_ITEM('',(#187),#206);
#177=STYLED_ITEM('',(#188),#45);
#178=STYLED_ITEM('',(#189),#46);
#179=STYLED_ITEM('',(#190),#47);
#180=PRESENTATION_STYLE_ASSIGNMENT((#191));
#181=PRESENTATION_STYLE_ASSIGNMENT((#192));
#182=PRESENTATION_STYLE_ASSIGNMENT((#193));
#183=PRESENTATION_STYLE_ASSIGNMENT((#194));
#184=PRESENTATION_STYLE_ASSIGNMENT((#157));
#185=PRESENTATION_STYLE_ASSIGNMENT((#158));
#186=PRESENTATION_STYLE_ASSIGNMENT((#159));
#187=PRESENTATION_STYLE_ASSIGNMENT((#160));
#188=PRESENTATION_STYLE_ASSIGNMENT((#30));
#189=PRESENTATION_STYLE_ASSIGNMENT((#31));
#190=PRESENTATION_STYLE_ASSIGNMENT((#32));
#191=POINT_STYLE('',#195,POSITIVE_LENGTH_MEASURE(3.),#199);
#192=POINT_STYLE('',#196,POSITIVE_LENGTH_MEASURE(3.),#199);
#193=POINT_STYLE('',#197,POSITIVE_LENGTH_MEASURE(3.),#199);
#194=POINT_STYLE('',#198,POSITIVE_LENGTH_MEASURE(3.),#200);
#195=PRE_DEFINED_POINT_MARKER_SYMBOL('plus');
#196=PRE_DEFINED_POINT_MARKER_SYMBOL('plus');
#197=PRE_DEFINED_POINT_MARKER_SYMBOL('plus');
#198=PRE_DEFINED_POINT_MARKER_SYMBOL('plus');
#199=COLOUR_RGB('Pale Maroon',0.811749446860456,0.603921568627451,0.611749446860456);
#200=COLOUR_RGB('Medium Royal',0.2,0.4,0.8);
#201=COLOUR_RGB('Light Gray',0.8,0.8,0.8);
#202=COLOUR_RGB('Medium Gray',0.490196078431373,0.490196078431373,0.490196078431373);
#203=AXIS2_PLACEMENT_3D('',#278,#228,#229);
#204=AXIS2_PLACEMENT_3D('PCS',#299,#230,#231);
#205=AXIS2_PLACEMENT_3D('MCS',#300,#232,#233);
#206=AXIS2_PLACEMENT_3D('CIP',#301,#234,#235);
#207=AXIS2_PLACEMENT_3D('',#302,#236,#237);
#208=AXIS2_PLACEMENT_3D('',#305,#238,#239);
#209=AXIS2_PLACEMENT_3D('',#306,#240,#241);
#210=AXIS2_PLACEMENT_3D('',#308,#242,#243);
#211=AXIS2_PLACEMENT_3D('',#309,#244,#245);
#212=AXIS2_PLACEMENT_3D('',#311,#246,#247);
#213=AXIS2_PLACEMENT_3D('',#312,#248,#249);
#214=AXIS2_PLACEMENT_3D('',#313,#250,#251);
#215=AXIS2_PLACEMENT_3D('',#315,#252,#253);
#216=AXIS2_PLACEMENT_3D('',#316,#254,#255);
#217=AXIS2_PLACEMENT_3D('',#318,#256,#257);
#218=AXIS2_PLACEMENT_3D('',#319,#258,#259);
#219=AXIS2_PLACEMENT_3D('',#321,#260,#261);
#220=AXIS2_PLACEMENT_3D('',#322,#262,#263);
#221=AXIS2_PLACEMENT_3D('',#323,#264,#265);
#222=AXIS2_PLACEMENT_3D('',#325,#266,#267);
#223=AXIS2_PLACEMENT_3D('',#326,#268,#269);
#224=AXIS2_PLACEMENT_3D('',#328,#270,#271);
#225=AXIS2_PLACEMENT_3D('',#329,#272,#273);
#226=AXIS2_PLACEMENT_3D('',#331,#274,#275);
#227=AXIS2_PLACEMENT_3D('',#332,#276,#277);
#228=DIRECTION('',(0.,0.,1.));
#229=DIRECTION('',(1.,0.,0.));
#230=DIRECTION('',(0.,0.,1.));
#231=DIRECTION('',(1.,0.,0.));
#232=DIRECTION('',(0.,0.,1.));
#233=DIRECTION('',(1.,0.,0.));
#234=DIRECTION('',(0.,0.,1.));
#235=DIRECTION('',(1.,0.,0.));
#236=DIRECTION('',(0.,0.,-1.));
#237=DIRECTION('',(-1.,0.,0.));
#238=DIRECTION('',(0.,0.,-1.));
#239=DIRECTION('',(1.,0.,-7.57396626466794E-19));
#240=DIRECTION('',(0.,0.,-1.));
#241=DIRECTION('',(-1.,0.,0.));
#242=DIRECTION('',(0.,0.,-1.));
#243=DIRECTION('',(1.,0.,0.));
#244=DIRECTION('',(0.,0.,-1.));
#245=DIRECTION('',(-1.,0.,0.));
#246=DIRECTION('',(0.,0.,-1.));
#247=DIRECTION('',(1.,0.,2.81095711394754E-15));
#248=DIRECTION('',(0.,0.,-1.));
#249=DIRECTION('',(1.,0.,0.));
#250=DIRECTION('',(0.,0.,-1.));
#251=DIRECTION('',(-1.,0.,0.));
#252=DIRECTION('',(0.,0.,1.));
#253=DIRECTION('',(-1.,0.,0.));
#254=DIRECTION('',(0.,0.,-1.));
#255=DIRECTION('',(-1.,0.,0.));
#256=DIRECTION('',(0.,0.,-1.));
#257=DIRECTION('',(1.,0.,1.3833865285533E-17));
#258=DIRECTION('',(0.,0.,-1.));
#259=DIRECTION('',(1.,0.,0.));
#260=DIRECTION('',(0.,0.,-1.));
#261=DIRECTION('',(1.,0.,0.));
#262=DIRECTION('',(0.,0.,1.));
#263=DIRECTION('',(1.,0.,0.));
#264=DIRECTION('',(0.,0.,-1.));
#265=DIRECTION('',(-1.,0.,0.));
#266=DIRECTION('',(0.,0.,-1.));
#267=DIRECTION('',(1.,0.,0.));
#268=DIRECTION('',(0.,0.,-1.));
#269=DIRECTION('',(-1.,0.,0.));
#270=DIRECTION('',(0.,0.,-1.));
#271=DIRECTION('',(1.,0.,0.));
#272=DIRECTION('',(0.,0.,-1.));
#273=DIRECTION('',(1.,0.,0.));
#274=DIRECTION('',(0.,0.,1.));
#275=DIRECTION('',(-1.,0.,2.62089404979797E-16));
#276=DIRECTION('',(0.,0.,1.));
#277=DIRECTION('',(1.,0.,0.));
#278=CARTESIAN_POINT('',(0.,0.,0.));
#279=CARTESIAN_POINT('',(0.,0.,35.4399200556784));
#280=CARTESIAN_POINT('',(0.,0.,0.));
#281=CARTESIAN_POINT('',(0.,0.,-15.3600799443216));
#282=CARTESIAN_POINT('CRP',(-2.38125,0.,-15.35935468917));
#283=CARTESIAN_POINT('',(-2.38062382239751,0.,-7.42257994432549));
#284=CARTESIAN_POINT('',(-2.38083254729785,0.,-9.81439111197702));
#285=CARTESIAN_POINT('',(-2.38104127219818,0.,-12.2062022796285));
#286=CARTESIAN_POINT('',(-2.38124999709852,0.,-14.5980134472786));
#287=CARTESIAN_POINT('',(-2.38129031419399,0.,-15.0600133286027));
#288=CARTESIAN_POINT('',(-2.04757218839441,0.,-15.37950684103));
#289=CARTESIAN_POINT('',(-1.58601202682762,0.,-15.3593546891669));
#290=CARTESIAN_POINT('',(-1.05734135121842,0.,-15.3362724289817));
#291=CARTESIAN_POINT('',(-0.52867067560921,0.,-15.3131901687966));
#292=CARTESIAN_POINT('',(-1.33226762955019E-15,0.,-15.2901079086114));
#293=CARTESIAN_POINT('',(0.,0.,-12.6675985871815));
#294=CARTESIAN_POINT('',(0.,0.,-10.0450892657515));
#295=CARTESIAN_POINT('',(0.,0.,-7.42257994432159));
#296=CARTESIAN_POINT('',(-0.793541274132503,0.,-7.42257994432159));
#297=CARTESIAN_POINT('',(-1.58708254826501,0.,-7.42257994432159));
#298=CARTESIAN_POINT('',(-2.38062382239751,0.,-7.42257994432159));
#299=CARTESIAN_POINT('',(0.,0.,35.4399200556784));
#300=CARTESIAN_POINT('',(0.,0.,0.));
#301=CARTESIAN_POINT('',(0.,0.,-15.3600799443216));
#302=CARTESIAN_POINT('',(0.,0.,-15.359354689167));
#303=CARTESIAN_POINT('',(-1.58601202682762,0.,-15.359354689167));
#304=CARTESIAN_POINT('',(-2.63468929776661E-15,0.,-15.2901079086114));
#305=CARTESIAN_POINT('',(0.,0.,-15.2901079086114));
#306=CARTESIAN_POINT('',(0.,0.,-14.5980134472772));
#307=CARTESIAN_POINT('',(-2.38124999709852,0.,-14.5980134472772));
#308=CARTESIAN_POINT('',(0.,0.,-14.5980799443216));
#309=CARTESIAN_POINT('',(0.,0.,-7.42257994432159));
#310=CARTESIAN_POINT('',(-2.38062382239751,0.,-7.42257994432159));
#311=CARTESIAN_POINT('',(0.,0.,-14.5980134472772));
#312=CARTESIAN_POINT('',(0.,0.,-7.42257994432159));
#313=CARTESIAN_POINT('',(0.,0.,35.4399200556784));
#314=CARTESIAN_POINT('',(-2.8702,0.,35.4399200556784));
#315=CARTESIAN_POINT('',(2.8702,0.,35.4399200556784));
#316=CARTESIAN_POINT('',(0.,0.,35.1351200556784));
#317=CARTESIAN_POINT('',(-3.175,0.,35.1351200556784));
#318=CARTESIAN_POINT('',(0.,0.,35.1351200556784));
#319=CARTESIAN_POINT('',(0.,0.,0.));
#320=CARTESIAN_POINT('',(3.17500000000001,0.,0.));
#321=CARTESIAN_POINT('',(0.,0.,2.92792005567841));
#322=CARTESIAN_POINT('',(0.,0.,0.));
#323=CARTESIAN_POINT('',(0.,0.,-7.42257994432159));
#324=CARTESIAN_POINT('',(-2.38125,0.,-7.42257994432159));
#325=CARTESIAN_POINT('',(2.38062382239751,0.,-7.42257994432159));
#326=CARTESIAN_POINT('',(0.,0.,-4.50157994432159));
#327=CARTESIAN_POINT('',(-2.38125,0.,-4.50157994432159));
#328=CARTESIAN_POINT('',(0.,0.,2.92792005567841));
#329=CARTESIAN_POINT('',(0.,0.,0.));
#330=CARTESIAN_POINT('',(3.17500000000001,0.,0.));
#331=CARTESIAN_POINT('',(0.,0.,-4.50157994432159));
#332=CARTESIAN_POINT('',(0.,0.,0.));
#333=MECHANICAL_DESIGN_GEOMETRIC_PRESENTATION_REPRESENTATION('',(#169,#170,
#171,#172,#173,#174,#175,#176,#177,#178,#179),#334);
#334=(
GEOMETRIC_REPRESENTATION_CONTEXT(3)
GLOBAL_UNCERTAINTY_ASSIGNED_CONTEXT((#335))
GLOBAL_UNIT_ASSIGNED_CONTEXT((#341,#337,#336))
REPRESENTATION_CONTEXT('S638R.188F2R030','TOP_LEVEL_ASSEMBLY_PART')
);
#335=UNCERTAINTY_MEASURE_WITH_UNIT(LENGTH_MEASURE(2.E-5),#341,
'DISTANCE_ACCURACY_VALUE','Maximum Tolerance applied to model');
#336=(
NAMED_UNIT(*)
SI_UNIT($,.STERADIAN.)
SOLID_ANGLE_UNIT()
);
#337=(
CONVERSION_BASED_UNIT('DEGREE',#339)
NAMED_UNIT(#338)
PLANE_ANGLE_UNIT()
);
#338=DIMENSIONAL_EXPONENTS(0.,0.,0.,0.,0.,0.,0.);
#339=PLANE_ANGLE_MEASURE_WITH_UNIT(PLANE_ANGLE_MEASURE(0.0174532925),#340);
#340=(
NAMED_UNIT(*)
PLANE_ANGLE_UNIT()
SI_UNIT($,.RADIAN.)
);
#341=(
LENGTH_UNIT()
NAMED_UNIT(*)
SI_UNIT(.MILLI.,.METRE.)
);
ENDSEC;
END-ISO-10303-21;
