ISO-10303-21;
HEADER;
/* Generated by software containing ST-Developer
 * from STEP Tools, Inc. (www.steptools.com) 
 */
/* OPTION: using custom schema-name function */

FILE_DESCRIPTION(
/* description */ (''),
/* implementation_level */ '2;1');

FILE_NAME(
/* name */ 'S638R.188F2R010.0Z6_Basic.stp',
/* time_stamp */ '2022-02-16T12:11:04+06:00',
/* author */ (''),
/* organization */ (''),
/* preprocessor_version */ 'ST-DEVELOPER v16.7',
/* originating_system */ 'SIEMENS PLM Software NX 12.0',
/* authorisation */ '');

FILE_SCHEMA (('AUTOMOTIVE_DESIGN { 1 0 10303 214 3 1 1 1 }'));
ENDSEC;

DATA;
#10=CONSTRUCTIVE_GEOMETRY_REPRESENTATION_RELATIONSHIP(
'supplemental geometry','',#26,#11);
#11=CONSTRUCTIVE_GEOMETRY_REPRESENTATION('supplemental geometry',(#205,
#206,#207),#335);
#12=GEOMETRICALLY_BOUNDED_WIREFRAME_SHAPE_REPRESENTATION(
'S638R.188F2R010.0Z6_Basic-None',(#27),#335);
#13=SHAPE_REPRESENTATION_RELATIONSHIP('None',
'relationship between S638R.188F2R010.0Z6_Basic-None and S638R.188F2R0
10.0Z6_Basic-None',#26,#15);
#14=SHAPE_REPRESENTATION_RELATIONSHIP('None',
'relationship between S638R.188F2R010.0Z6_Basic-None and S638R.188F2R0
10.0Z6_Basic-None',#26,#12);
#15=ADVANCED_BREP_SHAPE_REPRESENTATION('S638R.188F2R010.0Z6_Basic-None',
(#45,#46,#47),#335);
#16=SHAPE_DEFINITION_REPRESENTATION(#17,#26);
#17=PRODUCT_DEFINITION_SHAPE('','',#18);
#18=PRODUCT_DEFINITION(' ','',#20,#19);
#19=PRODUCT_DEFINITION_CONTEXT('part definition',#25,'design');
#20=PRODUCT_DEFINITION_FORMATION_WITH_SPECIFIED_SOURCE(' ',' ',#22,
 .NOT_KNOWN.);
#21=PRODUCT_RELATED_PRODUCT_CATEGORY('part','',(#22));
#22=PRODUCT('inpu18D0F11Ddw6y','inpu18D0F11Ddw6y',' ',(#23));
#23=PRODUCT_CONTEXT(' ',#25,'mechanical');
#24=APPLICATION_PROTOCOL_DEFINITION('international standard',
'automotive_design',2010,#25);
#25=APPLICATION_CONTEXT(
'core data for automotive mechanical design processes');
#26=SHAPE_REPRESENTATION('S638R.188F2R010.0Z6_Basic-None',(#204),#335);
#27=GEOMETRIC_CURVE_SET('None',(#280,#281,#282,#283,#166));
#28=CYLINDRICAL_SURFACE('',#220,3.175);
#29=CYLINDRICAL_SURFACE('',#225,2.38125);
#30=SURFACE_STYLE_USAGE(.BOTH.,#33);
#31=SURFACE_STYLE_USAGE(.BOTH.,#34);
#32=SURFACE_STYLE_USAGE(.BOTH.,#35);
#33=SURFACE_SIDE_STYLE('',(#36));
#34=SURFACE_SIDE_STYLE('',(#37));
#35=SURFACE_SIDE_STYLE('',(#38));
#36=SURFACE_STYLE_FILL_AREA(#39);
#37=SURFACE_STYLE_FILL_AREA(#40);
#38=SURFACE_STYLE_FILL_AREA(#41);
#39=FILL_AREA_STYLE('',(#42));
#40=FILL_AREA_STYLE('',(#43));
#41=FILL_AREA_STYLE('',(#44));
#42=FILL_AREA_STYLE_COLOUR('',#202);
#43=FILL_AREA_STYLE_COLOUR('',#203);
#44=FILL_AREA_STYLE_COLOUR('',#203);
#45=MANIFOLD_SOLID_BREP('CUT',#48);
#46=MANIFOLD_SOLID_BREP('NOCUT',#49);
#47=MANIFOLD_SOLID_BREP('NOCUT',#50);
#48=CLOSED_SHELL('',(#62,#63,#64,#65));
#49=CLOSED_SHELL('',(#66,#67,#68,#69));
#50=CLOSED_SHELL('',(#70,#71,#72,#73));
#51=PLANE('',#214);
#52=PLANE('',#216);
#53=PLANE('',#221);
#54=PLANE('',#223);
#55=PLANE('',#228);
#56=FACE_OUTER_BOUND('',#98,.T.);
#57=FACE_OUTER_BOUND('',#99,.T.);
#58=FACE_OUTER_BOUND('',#104,.T.);
#59=FACE_OUTER_BOUND('',#105,.T.);
#60=FACE_OUTER_BOUND('',#110,.T.);
#61=TOROIDAL_SURFACE('',#211,2.12725,0.253999999999999);
#62=ADVANCED_FACE('',(#79,#80),#74,.F.);
#63=ADVANCED_FACE('',(#81,#82),#61,.T.);
#64=ADVANCED_FACE('',(#83,#84),#75,.T.);
#65=ADVANCED_FACE('',(#56),#51,.F.);
#66=ADVANCED_FACE('',(#57),#52,.T.);
#67=ADVANCED_FACE('',(#85,#86),#76,.T.);
#68=ADVANCED_FACE('',(#87,#88),#28,.T.);
#69=ADVANCED_FACE('',(#58),#53,.F.);
#70=ADVANCED_FACE('',(#59),#54,.T.);
#71=ADVANCED_FACE('',(#89,#90),#29,.T.);
#72=ADVANCED_FACE('',(#91,#92),#77,.T.);
#73=ADVANCED_FACE('',(#60),#55,.T.);
#74=CONICAL_SURFACE('',#209,2.63468929776661E-15,87.5);
#75=CONICAL_SURFACE('',#213,2.38124999903284,0.00499999999999448);
#76=CONICAL_SURFACE('',#218,3.175,44.9999999999997);
#77=CONICAL_SURFACE('',#227,2.38125,10.);
#78=VERTEX_LOOP('',#130);
#79=FACE_BOUND('',#93,.T.);
#80=FACE_BOUND('',#78,.T.);
#81=FACE_BOUND('',#94,.T.);
#82=FACE_BOUND('',#95,.T.);
#83=FACE_BOUND('',#96,.T.);
#84=FACE_BOUND('',#97,.T.);
#85=FACE_BOUND('',#100,.T.);
#86=FACE_BOUND('',#101,.T.);
#87=FACE_BOUND('',#102,.T.);
#88=FACE_BOUND('',#103,.T.);
#89=FACE_BOUND('',#106,.T.);
#90=FACE_BOUND('',#107,.T.);
#91=FACE_BOUND('',#108,.T.);
#92=FACE_BOUND('',#109,.T.);
#93=EDGE_LOOP('',(#111));
#94=EDGE_LOOP('',(#112));
#95=EDGE_LOOP('',(#113));
#96=EDGE_LOOP('',(#114));
#97=EDGE_LOOP('',(#115));
#98=EDGE_LOOP('',(#116));
#99=EDGE_LOOP('',(#117));
#100=EDGE_LOOP('',(#118));
#101=EDGE_LOOP('',(#119));
#102=EDGE_LOOP('',(#120));
#103=EDGE_LOOP('',(#121));
#104=EDGE_LOOP('',(#122));
#105=EDGE_LOOP('',(#123));
#106=EDGE_LOOP('',(#124));
#107=EDGE_LOOP('',(#125));
#108=EDGE_LOOP('',(#126));
#109=EDGE_LOOP('',(#127));
#110=EDGE_LOOP('',(#128));
#111=ORIENTED_EDGE('',*,*,#139,.T.);
#112=ORIENTED_EDGE('',*,*,#140,.T.);
#113=ORIENTED_EDGE('',*,*,#139,.F.);
#114=ORIENTED_EDGE('',*,*,#141,.T.);
#115=ORIENTED_EDGE('',*,*,#140,.F.);
#116=ORIENTED_EDGE('',*,*,#141,.F.);
#117=ORIENTED_EDGE('',*,*,#142,.F.);
#118=ORIENTED_EDGE('',*,*,#142,.T.);
#119=ORIENTED_EDGE('',*,*,#143,.F.);
#120=ORIENTED_EDGE('',*,*,#143,.T.);
#121=ORIENTED_EDGE('',*,*,#144,.F.);
#122=ORIENTED_EDGE('',*,*,#144,.T.);
#123=ORIENTED_EDGE('',*,*,#145,.T.);
#124=ORIENTED_EDGE('',*,*,#146,.T.);
#125=ORIENTED_EDGE('',*,*,#145,.F.);
#126=ORIENTED_EDGE('',*,*,#147,.T.);
#127=ORIENTED_EDGE('',*,*,#146,.F.);
#128=ORIENTED_EDGE('',*,*,#147,.F.);
#129=VERTEX_POINT('',#304);
#130=VERTEX_POINT('',#305);
#131=VERTEX_POINT('',#308);
#132=VERTEX_POINT('',#311);
#133=VERTEX_POINT('',#315);
#134=VERTEX_POINT('',#318);
#135=VERTEX_POINT('',#321);
#136=VERTEX_POINT('',#325);
#137=VERTEX_POINT('',#328);
#138=VERTEX_POINT('',#331);
#139=EDGE_CURVE('',#129,#129,#148,.T.);
#140=EDGE_CURVE('',#131,#131,#149,.T.);
#141=EDGE_CURVE('',#132,#132,#150,.T.);
#142=EDGE_CURVE('',#133,#133,#151,.T.);
#143=EDGE_CURVE('',#134,#134,#152,.T.);
#144=EDGE_CURVE('',#135,#135,#153,.T.);
#145=EDGE_CURVE('',#136,#136,#154,.T.);
#146=EDGE_CURVE('',#137,#137,#155,.T.);
#147=EDGE_CURVE('',#138,#138,#156,.T.);
#148=CIRCLE('',#208,2.11617067560921);
#149=CIRCLE('',#210,2.38124999903284);
#150=CIRCLE('',#212,2.38057948910008);
#151=CIRCLE('',#215,2.8702);
#152=CIRCLE('',#217,3.175);
#153=CIRCLE('',#219,3.17500000000001);
#154=CIRCLE('',#222,2.38125);
#155=CIRCLE('',#224,2.38125);
#156=CIRCLE('',#226,3.17500000000001);
#157=CURVE_STYLE('',#162,POSITIVE_LENGTH_MEASURE(0.18),#161);
#158=CURVE_STYLE('',#163,POSITIVE_LENGTH_MEASURE(0.18),#200);
#159=CURVE_STYLE('',#164,POSITIVE_LENGTH_MEASURE(0.18),#200);
#160=CURVE_STYLE('',#165,POSITIVE_LENGTH_MEASURE(0.18),#200);
#161=DRAUGHTING_PRE_DEFINED_COLOUR('blue');
#162=DRAUGHTING_PRE_DEFINED_CURVE_FONT('continuous');
#163=DRAUGHTING_PRE_DEFINED_CURVE_FONT('continuous');
#164=DRAUGHTING_PRE_DEFINED_CURVE_FONT('continuous');
#165=DRAUGHTING_PRE_DEFINED_CURVE_FONT('continuous');
#166=TRIMMED_CURVE('CUTTING PART LINE',#167,(PARAMETER_VALUE(0.)),(
PARAMETER_VALUE(1.)),.T.,.PARAMETER.);
#167=(
BOUNDED_CURVE()
B_SPLINE_CURVE(3,(#284,#285,#286,#287,#288,#289,#290,#291,#292,#293,#294,
#295,#296,#297,#298,#299),.UNSPECIFIED.,.T.,.F.)
B_SPLINE_CURVE_WITH_KNOTS((4,3,3,3,3,4),(0.,0.375955586994149,0.396021318207136,
0.499665025630802,0.883517311416691,1.),.UNSPECIFIED.)
CURVE()
GEOMETRIC_REPRESENTATION_ITEM()
RATIONAL_B_SPLINE_CURVE((1.,1.,1.,1.,0.794321024033426,0.794321024033426,
1.,1.,1.,1.,1.,1.,1.,1.,1.,1.))
REPRESENTATION_ITEM('CUTTING PART LINE')
);
#168=PRESENTATION_LAYER_ASSIGNMENT('1','Layer 1',(#280,#281,#282,#283,#166,
#205,#206,#207,#46,#47));
#169=PRESENTATION_LAYER_ASSIGNMENT('3','Layer 3',(#45));
#170=STYLED_ITEM('',(#181),#280);
#171=STYLED_ITEM('',(#182),#281);
#172=STYLED_ITEM('',(#183),#282);
#173=STYLED_ITEM('',(#184),#283);
#174=STYLED_ITEM('',(#185),#166);
#175=STYLED_ITEM('',(#186),#205);
#176=STYLED_ITEM('',(#187),#206);
#177=STYLED_ITEM('',(#188),#207);
#178=STYLED_ITEM('',(#189),#45);
#179=STYLED_ITEM('',(#190),#46);
#180=STYLED_ITEM('',(#191),#47);
#181=PRESENTATION_STYLE_ASSIGNMENT((#192));
#182=PRESENTATION_STYLE_ASSIGNMENT((#193));
#183=PRESENTATION_STYLE_ASSIGNMENT((#194));
#184=PRESENTATION_STYLE_ASSIGNMENT((#195));
#185=PRESENTATION_STYLE_ASSIGNMENT((#157));
#186=PRESENTATION_STYLE_ASSIGNMENT((#158));
#187=PRESENTATION_STYLE_ASSIGNMENT((#159));
#188=PRESENTATION_STYLE_ASSIGNMENT((#160));
#189=PRESENTATION_STYLE_ASSIGNMENT((#30));
#190=PRESENTATION_STYLE_ASSIGNMENT((#31));
#191=PRESENTATION_STYLE_ASSIGNMENT((#32));
#192=POINT_STYLE('',#196,POSITIVE_LENGTH_MEASURE(3.),#200);
#193=POINT_STYLE('',#197,POSITIVE_LENGTH_MEASURE(3.),#200);
#194=POINT_STYLE('',#198,POSITIVE_LENGTH_MEASURE(3.),#200);
#195=POINT_STYLE('',#199,POSITIVE_LENGTH_MEASURE(3.),#201);
#196=PRE_DEFINED_POINT_MARKER_SYMBOL('plus');
#197=PRE_DEFINED_POINT_MARKER_SYMBOL('plus');
#198=PRE_DEFINED_POINT_MARKER_SYMBOL('plus');
#199=PRE_DEFINED_POINT_MARKER_SYMBOL('plus');
#200=COLOUR_RGB('Pale Maroon',0.811749446860456,0.603921568627451,0.611749446860456);
#201=COLOUR_RGB('Medium Royal',0.2,0.4,0.8);
#202=COLOUR_RGB('Light Gray',0.8,0.8,0.8);
#203=COLOUR_RGB('Medium Gray',0.490196078431373,0.490196078431373,0.490196078431373);
#204=AXIS2_PLACEMENT_3D('',#279,#229,#230);
#205=AXIS2_PLACEMENT_3D('PCS',#300,#231,#232);
#206=AXIS2_PLACEMENT_3D('MCS',#301,#233,#234);
#207=AXIS2_PLACEMENT_3D('CIP',#302,#235,#236);
#208=AXIS2_PLACEMENT_3D('',#303,#237,#238);
#209=AXIS2_PLACEMENT_3D('',#306,#239,#240);
#210=AXIS2_PLACEMENT_3D('',#307,#241,#242);
#211=AXIS2_PLACEMENT_3D('',#309,#243,#244);
#212=AXIS2_PLACEMENT_3D('',#310,#245,#246);
#213=AXIS2_PLACEMENT_3D('',#312,#247,#248);
#214=AXIS2_PLACEMENT_3D('',#313,#249,#250);
#215=AXIS2_PLACEMENT_3D('',#314,#251,#252);
#216=AXIS2_PLACEMENT_3D('',#316,#253,#254);
#217=AXIS2_PLACEMENT_3D('',#317,#255,#256);
#218=AXIS2_PLACEMENT_3D('',#319,#257,#258);
#219=AXIS2_PLACEMENT_3D('',#320,#259,#260);
#220=AXIS2_PLACEMENT_3D('',#322,#261,#262);
#221=AXIS2_PLACEMENT_3D('',#323,#263,#264);
#222=AXIS2_PLACEMENT_3D('',#324,#265,#266);
#223=AXIS2_PLACEMENT_3D('',#326,#267,#268);
#224=AXIS2_PLACEMENT_3D('',#327,#269,#270);
#225=AXIS2_PLACEMENT_3D('',#329,#271,#272);
#226=AXIS2_PLACEMENT_3D('',#330,#273,#274);
#227=AXIS2_PLACEMENT_3D('',#332,#275,#276);
#228=AXIS2_PLACEMENT_3D('',#333,#277,#278);
#229=DIRECTION('',(0.,0.,1.));
#230=DIRECTION('',(1.,0.,0.));
#231=DIRECTION('',(0.,0.,1.));
#232=DIRECTION('',(1.,0.,0.));
#233=DIRECTION('',(0.,0.,1.));
#234=DIRECTION('',(1.,0.,0.));
#235=DIRECTION('',(0.,0.,1.));
#236=DIRECTION('',(1.,0.,0.));
#237=DIRECTION('',(0.,0.,-1.));
#238=DIRECTION('',(-1.,0.,0.));
#239=DIRECTION('',(0.,0.,-1.));
#240=DIRECTION('',(1.,0.,-1.66627257822695E-18));
#241=DIRECTION('',(0.,0.,-1.));
#242=DIRECTION('',(-1.,0.,0.));
#243=DIRECTION('',(0.,0.,-1.));
#244=DIRECTION('',(1.,0.,0.));
#245=DIRECTION('',(0.,0.,-1.));
#246=DIRECTION('',(-1.,0.,0.));
#247=DIRECTION('',(0.,0.,-1.));
#248=DIRECTION('',(1.,0.,-2.81095711174466E-14));
#249=DIRECTION('',(0.,0.,-1.));
#250=DIRECTION('',(1.,0.,0.));
#251=DIRECTION('',(0.,0.,-1.));
#252=DIRECTION('',(-1.,0.,0.));
#253=DIRECTION('',(0.,0.,1.));
#254=DIRECTION('',(-1.,0.,0.));
#255=DIRECTION('',(0.,0.,-1.));
#256=DIRECTION('',(-1.,0.,0.));
#257=DIRECTION('',(0.,0.,-1.));
#258=DIRECTION('',(1.,0.,1.3833865285533E-17));
#259=DIRECTION('',(0.,0.,-1.));
#260=DIRECTION('',(1.,0.,0.));
#261=DIRECTION('',(0.,0.,-1.));
#262=DIRECTION('',(1.,0.,0.));
#263=DIRECTION('',(0.,0.,1.));
#264=DIRECTION('',(1.,0.,0.));
#265=DIRECTION('',(0.,0.,-1.));
#266=DIRECTION('',(-1.,0.,0.));
#267=DIRECTION('',(0.,0.,-1.));
#268=DIRECTION('',(1.,0.,0.));
#269=DIRECTION('',(0.,0.,-1.));
#270=DIRECTION('',(-1.,0.,0.));
#271=DIRECTION('',(0.,0.,-1.));
#272=DIRECTION('',(1.,0.,0.));
#273=DIRECTION('',(0.,0.,-1.));
#274=DIRECTION('',(1.,0.,0.));
#275=DIRECTION('',(0.,0.,1.));
#276=DIRECTION('',(-1.,0.,2.62089404979797E-16));
#277=DIRECTION('',(0.,0.,1.));
#278=DIRECTION('',(1.,0.,0.));
#279=CARTESIAN_POINT('',(0.,0.,0.));
#280=CARTESIAN_POINT('',(0.,0.,35.4399200556784));
#281=CARTESIAN_POINT('',(0.,0.,0.));
#282=CARTESIAN_POINT('',(0.,0.,-15.3600799443216));
#283=CARTESIAN_POINT('CRP',(-2.38125,0.,-15.3598381926016));
#284=CARTESIAN_POINT('',(-2.38057948910008,0.,-7.4225799443264));
#285=CARTESIAN_POINT('',(-2.380802992411,0.,-9.98373922243181));
#286=CARTESIAN_POINT('',(-2.38102649572192,0.,-12.5448985005372));
#287=CARTESIAN_POINT('',(-2.38124999903284,0.,-15.1060577786414));
#288=CARTESIAN_POINT('',(-2.38126343806466,0.,-15.2600577390819));
#289=CARTESIAN_POINT('',(-2.27002406279815,0.,-15.3665555765577));
#290=CARTESIAN_POINT('',(-2.11617067560921,0.,-15.3598381926034));
#291=CARTESIAN_POINT('',(-1.41078045040615,0.,-15.3290401902524));
#292=CARTESIAN_POINT('',(-0.705390225203073,0.,-15.2982421879017));
#293=CARTESIAN_POINT('',(-1.33226762955019E-15,0.,-15.2674441855509));
#294=CARTESIAN_POINT('',(0.,0.,-12.6524894384745));
#295=CARTESIAN_POINT('',(0.,0.,-10.037534691398));
#296=CARTESIAN_POINT('',(0.,0.,-7.42257994432159));
#297=CARTESIAN_POINT('',(-0.793526496366693,0.,-7.42257994432159));
#298=CARTESIAN_POINT('',(-1.58705299273339,0.,-7.42257994432159));
#299=CARTESIAN_POINT('',(-2.38057948910008,0.,-7.42257994432159));
#300=CARTESIAN_POINT('',(0.,0.,35.4399200556784));
#301=CARTESIAN_POINT('',(0.,0.,0.));
#302=CARTESIAN_POINT('',(0.,0.,-15.3600799443216));
#303=CARTESIAN_POINT('',(0.,0.,-15.3598381926034));
#304=CARTESIAN_POINT('',(-2.11617067560921,0.,-15.3598381926034));
#305=CARTESIAN_POINT('',(-2.63468929776661E-15,0.,-15.2674441855509));
#306=CARTESIAN_POINT('',(0.,0.,-15.2674441855509));
#307=CARTESIAN_POINT('',(0.,0.,-15.1060577786401));
#308=CARTESIAN_POINT('',(-2.38124999903284,0.,-15.1060577786401));
#309=CARTESIAN_POINT('',(0.,0.,-15.1060799443216));
#310=CARTESIAN_POINT('',(0.,0.,-7.42257994432159));
#311=CARTESIAN_POINT('',(-2.38057948910008,0.,-7.42257994432159));
#312=CARTESIAN_POINT('',(0.,0.,-15.1060577786401));
#313=CARTESIAN_POINT('',(0.,0.,-7.42257994432159));
#314=CARTESIAN_POINT('',(0.,0.,35.4399200556784));
#315=CARTESIAN_POINT('',(-2.8702,0.,35.4399200556784));
#316=CARTESIAN_POINT('',(2.8702,0.,35.4399200556784));
#317=CARTESIAN_POINT('',(0.,0.,35.1351200556784));
#318=CARTESIAN_POINT('',(-3.175,0.,35.1351200556784));
#319=CARTESIAN_POINT('',(0.,0.,35.1351200556784));
#320=CARTESIAN_POINT('',(0.,0.,0.));
#321=CARTESIAN_POINT('',(3.17500000000001,0.,0.));
#322=CARTESIAN_POINT('',(0.,0.,2.92792005567841));
#323=CARTESIAN_POINT('',(0.,0.,0.));
#324=CARTESIAN_POINT('',(0.,0.,-7.42257994432159));
#325=CARTESIAN_POINT('',(-2.38125,0.,-7.42257994432159));
#326=CARTESIAN_POINT('',(2.38057948910008,0.,-7.42257994432159));
#327=CARTESIAN_POINT('',(0.,0.,-4.50157994432159));
#328=CARTESIAN_POINT('',(-2.38125,0.,-4.50157994432159));
#329=CARTESIAN_POINT('',(0.,0.,2.92792005567841));
#330=CARTESIAN_POINT('',(0.,0.,0.));
#331=CARTESIAN_POINT('',(3.17500000000001,0.,0.));
#332=CARTESIAN_POINT('',(0.,0.,-4.50157994432159));
#333=CARTESIAN_POINT('',(0.,0.,0.));
#334=MECHANICAL_DESIGN_GEOMETRIC_PRESENTATION_REPRESENTATION('',(#170,#171,
#172,#173,#174,#175,#176,#177,#178,#179,#180),#335);
#335=(
GEOMETRIC_REPRESENTATION_CONTEXT(3)
GLOBAL_UNCERTAINTY_ASSIGNED_CONTEXT((#336))
GLOBAL_UNIT_ASSIGNED_CONTEXT((#342,#338,#337))
REPRESENTATION_CONTEXT('S638R.188F2R010','TOP_LEVEL_ASSEMBLY_PART')
);
#336=UNCERTAINTY_MEASURE_WITH_UNIT(LENGTH_MEASURE(2.E-5),#342,
'DISTANCE_ACCURACY_VALUE','Maximum Tolerance applied to model');
#337=(
NAMED_UNIT(*)
SI_UNIT($,.STERADIAN.)
SOLID_ANGLE_UNIT()
);
#338=(
CONVERSION_BASED_UNIT('DEGREE',#340)
NAMED_UNIT(#339)
PLANE_ANGLE_UNIT()
);
#339=DIMENSIONAL_EXPONENTS(0.,0.,0.,0.,0.,0.,0.);
#340=PLANE_ANGLE_MEASURE_WITH_UNIT(PLANE_ANGLE_MEASURE(0.0174532925),#341);
#341=(
NAMED_UNIT(*)
PLANE_ANGLE_UNIT()
SI_UNIT($,.RADIAN.)
);
#342=(
LENGTH_UNIT()
NAMED_UNIT(*)
SI_UNIT(.MILLI.,.METRE.)
);
ENDSEC;
END-ISO-10303-21;
