ISO-10303-21;
HEADER;
/* Generated by software containing ST-Developer
 * from STEP Tools, Inc. (www.steptools.com) 
 */
/* OPTION: using custom schema-name function */

FILE_DESCRIPTION(
/* description */ (''),
/* implementation_level */ '2;1');

FILE_NAME(
/* name */ 'S638R.125F2R030.0Z6_Basic.stp',
/* time_stamp */ '2022-02-16T12:11:05+06:00',
/* author */ (''),
/* organization */ (''),
/* preprocessor_version */ 'ST-DEVELOPER v16.7',
/* originating_system */ 'SIEMENS PLM Software NX 12.0',
/* authorisation */ '');

FILE_SCHEMA (('AUTOMOTIVE_DESIGN { 1 0 10303 214 3 1 1 1 }'));
ENDSEC;

DATA;
#10=CONSTRUCTIVE_GEOMETRY_REPRESENTATION_RELATIONSHIP(
'supplemental geometry','',#26,#11);
#11=CONSTRUCTIVE_GEOMETRY_REPRESENTATION('supplemental geometry',(#215,
#216,#217),#354);
#12=GEOMETRICALLY_BOUNDED_WIREFRAME_SHAPE_REPRESENTATION(
'S638R.125F2R030.0Z6_Basic-None',(#27),#354);
#13=SHAPE_REPRESENTATION_RELATIONSHIP('None',
'relationship between S638R.125F2R030.0Z6_Basic-None and S638R.125F2R0
30.0Z6_Basic-None',#26,#15);
#14=SHAPE_REPRESENTATION_RELATIONSHIP('None',
'relationship between S638R.125F2R030.0Z6_Basic-None and S638R.125F2R0
30.0Z6_Basic-None',#26,#12);
#15=ADVANCED_BREP_SHAPE_REPRESENTATION('S638R.125F2R030.0Z6_Basic-None',
(#45,#46,#47),#354);
#16=SHAPE_DEFINITION_REPRESENTATION(#17,#26);
#17=PRODUCT_DEFINITION_SHAPE('','',#18);
#18=PRODUCT_DEFINITION(' ','',#20,#19);
#19=PRODUCT_DEFINITION_CONTEXT('part definition',#25,'design');
#20=PRODUCT_DEFINITION_FORMATION_WITH_SPECIFIED_SOURCE(' ',' ',#22,
 .NOT_KNOWN.);
#21=PRODUCT_RELATED_PRODUCT_CATEGORY('part','',(#22));
#22=PRODUCT('inpu2364FE21xm9r','inpu2364FE21xm9r',' ',(#23));
#23=PRODUCT_CONTEXT(' ',#25,'mechanical');
#24=APPLICATION_PROTOCOL_DEFINITION('international standard',
'automotive_design',2010,#25);
#25=APPLICATION_CONTEXT(
'core data for automotive mechanical design processes');
#26=SHAPE_REPRESENTATION('S638R.125F2R030.0Z6_Basic-None',(#214),#354);
#27=GEOMETRIC_CURVE_SET('None',(#296,#297,#298,#299,#177));
#28=TOROIDAL_SURFACE('',#237,0.8255,0.761999999999998);
#29=VERTEX_LOOP('',#145);
#30=SURFACE_STYLE_USAGE(.BOTH.,#33);
#31=SURFACE_STYLE_USAGE(.BOTH.,#34);
#32=SURFACE_STYLE_USAGE(.BOTH.,#35);
#33=SURFACE_SIDE_STYLE('',(#36));
#34=SURFACE_SIDE_STYLE('',(#37));
#35=SURFACE_SIDE_STYLE('',(#38));
#36=SURFACE_STYLE_FILL_AREA(#39);
#37=SURFACE_STYLE_FILL_AREA(#40);
#38=SURFACE_STYLE_FILL_AREA(#41);
#39=FILL_AREA_STYLE('',(#42));
#40=FILL_AREA_STYLE('',(#43));
#41=FILL_AREA_STYLE('',(#44));
#42=FILL_AREA_STYLE_COLOUR('',#212);
#43=FILL_AREA_STYLE_COLOUR('',#212);
#44=FILL_AREA_STYLE_COLOUR('',#213);
#45=MANIFOLD_SOLID_BREP('NOCUT',#48);
#46=MANIFOLD_SOLID_BREP('NOCUT',#49);
#47=MANIFOLD_SOLID_BREP('CUT',#50);
#48=CLOSED_SHELL('',(#74,#75,#76,#77));
#49=CLOSED_SHELL('',(#78,#79,#80,#81,#82));
#50=CLOSED_SHELL('',(#83,#84,#85,#86));
#51=CYLINDRICAL_SURFACE('',#223,3.175);
#52=CYLINDRICAL_SURFACE('',#227,3.175);
#53=CYLINDRICAL_SURFACE('',#231,1.5875);
#54=CONICAL_SURFACE('',#221,3.175,44.9999999999998);
#55=CONICAL_SURFACE('',#232,1.5875,10.);
#56=CONICAL_SURFACE('',#235,2.63468929776661E-15,87.5);
#57=CONICAL_SURFACE('',#239,1.58749999709852,0.00499999999996739);
#58=FACE_BOUND('',#98,.T.);
#59=FACE_BOUND('',#99,.T.);
#60=FACE_BOUND('',#100,.T.);
#61=FACE_BOUND('',#101,.T.);
#62=FACE_BOUND('',#103,.T.);
#63=FACE_BOUND('',#104,.T.);
#64=FACE_BOUND('',#106,.T.);
#65=FACE_BOUND('',#107,.T.);
#66=FACE_BOUND('',#108,.T.);
#67=FACE_BOUND('',#109,.T.);
#68=FACE_BOUND('',#111,.T.);
#69=FACE_BOUND('',#29,.T.);
#70=FACE_BOUND('',#112,.T.);
#71=FACE_BOUND('',#113,.T.);
#72=FACE_BOUND('',#114,.T.);
#73=FACE_BOUND('',#115,.T.);
#74=ADVANCED_FACE('',(#92),#87,.T.);
#75=ADVANCED_FACE('',(#58,#59),#54,.T.);
#76=ADVANCED_FACE('',(#60,#61),#51,.T.);
#77=ADVANCED_FACE('',(#93),#88,.F.);
#78=ADVANCED_FACE('',(#62,#63),#52,.T.);
#79=ADVANCED_FACE('',(#94),#89,.T.);
#80=ADVANCED_FACE('',(#64,#65),#53,.T.);
#81=ADVANCED_FACE('',(#66,#67),#55,.T.);
#82=ADVANCED_FACE('',(#95),#90,.T.);
#83=ADVANCED_FACE('',(#68,#69),#56,.F.);
#84=ADVANCED_FACE('',(#70,#71),#28,.T.);
#85=ADVANCED_FACE('',(#72,#73),#57,.T.);
#86=ADVANCED_FACE('',(#96),#91,.F.);
#87=PLANE('',#219);
#88=PLANE('',#224);
#89=PLANE('',#229);
#90=PLANE('',#233);
#91=PLANE('',#240);
#92=FACE_OUTER_BOUND('',#97,.T.);
#93=FACE_OUTER_BOUND('',#102,.T.);
#94=FACE_OUTER_BOUND('',#105,.T.);
#95=FACE_OUTER_BOUND('',#110,.T.);
#96=FACE_OUTER_BOUND('',#116,.T.);
#97=EDGE_LOOP('',(#117));
#98=EDGE_LOOP('',(#118));
#99=EDGE_LOOP('',(#119));
#100=EDGE_LOOP('',(#120));
#101=EDGE_LOOP('',(#121));
#102=EDGE_LOOP('',(#122));
#103=EDGE_LOOP('',(#123));
#104=EDGE_LOOP('',(#124));
#105=EDGE_LOOP('',(#125));
#106=EDGE_LOOP('',(#126));
#107=EDGE_LOOP('',(#127));
#108=EDGE_LOOP('',(#128));
#109=EDGE_LOOP('',(#129));
#110=EDGE_LOOP('',(#130));
#111=EDGE_LOOP('',(#131));
#112=EDGE_LOOP('',(#132));
#113=EDGE_LOOP('',(#133));
#114=EDGE_LOOP('',(#134));
#115=EDGE_LOOP('',(#135));
#116=EDGE_LOOP('',(#136));
#117=ORIENTED_EDGE('',*,*,#148,.F.);
#118=ORIENTED_EDGE('',*,*,#148,.T.);
#119=ORIENTED_EDGE('',*,*,#149,.F.);
#120=ORIENTED_EDGE('',*,*,#150,.T.);
#121=ORIENTED_EDGE('',*,*,#149,.T.);
#122=ORIENTED_EDGE('',*,*,#150,.F.);
#123=ORIENTED_EDGE('',*,*,#151,.F.);
#124=ORIENTED_EDGE('',*,*,#152,.T.);
#125=ORIENTED_EDGE('',*,*,#153,.T.);
#126=ORIENTED_EDGE('',*,*,#154,.T.);
#127=ORIENTED_EDGE('',*,*,#153,.F.);
#128=ORIENTED_EDGE('',*,*,#151,.T.);
#129=ORIENTED_EDGE('',*,*,#154,.F.);
#130=ORIENTED_EDGE('',*,*,#152,.F.);
#131=ORIENTED_EDGE('',*,*,#155,.T.);
#132=ORIENTED_EDGE('',*,*,#156,.T.);
#133=ORIENTED_EDGE('',*,*,#155,.F.);
#134=ORIENTED_EDGE('',*,*,#157,.T.);
#135=ORIENTED_EDGE('',*,*,#156,.F.);
#136=ORIENTED_EDGE('',*,*,#157,.F.);
#137=VERTEX_POINT('',#320);
#138=VERTEX_POINT('',#323);
#139=VERTEX_POINT('',#326);
#140=VERTEX_POINT('',#330);
#141=VERTEX_POINT('',#332);
#142=VERTEX_POINT('',#335);
#143=VERTEX_POINT('',#338);
#144=VERTEX_POINT('',#343);
#145=VERTEX_POINT('',#344);
#146=VERTEX_POINT('',#347);
#147=VERTEX_POINT('',#350);
#148=EDGE_CURVE('',#137,#137,#158,.T.);
#149=EDGE_CURVE('',#138,#138,#159,.T.);
#150=EDGE_CURVE('',#139,#139,#160,.T.);
#151=EDGE_CURVE('',#140,#140,#161,.T.);
#152=EDGE_CURVE('',#141,#141,#162,.T.);
#153=EDGE_CURVE('',#142,#142,#163,.T.);
#154=EDGE_CURVE('',#143,#143,#164,.T.);
#155=EDGE_CURVE('',#144,#144,#165,.T.);
#156=EDGE_CURVE('',#146,#146,#166,.T.);
#157=EDGE_CURVE('',#147,#147,#167,.T.);
#158=CIRCLE('',#218,2.87019999999999);
#159=CIRCLE('',#220,3.175);
#160=CIRCLE('',#222,3.175);
#161=CIRCLE('',#225,3.175);
#162=CIRCLE('',#226,3.175);
#163=CIRCLE('',#228,1.5875);
#164=CIRCLE('',#230,1.5875);
#165=CIRCLE('',#234,0.792262026827615);
#166=CIRCLE('',#236,1.58749999709852);
#167=CIRCLE('',#238,1.58715089341697);
#168=CURVE_STYLE('',#173,POSITIVE_LENGTH_MEASURE(0.18),#172);
#169=CURVE_STYLE('',#174,POSITIVE_LENGTH_MEASURE(0.18),#210);
#170=CURVE_STYLE('',#175,POSITIVE_LENGTH_MEASURE(0.18),#210);
#171=CURVE_STYLE('',#176,POSITIVE_LENGTH_MEASURE(0.18),#210);
#172=DRAUGHTING_PRE_DEFINED_COLOUR('blue');
#173=DRAUGHTING_PRE_DEFINED_CURVE_FONT('continuous');
#174=DRAUGHTING_PRE_DEFINED_CURVE_FONT('continuous');
#175=DRAUGHTING_PRE_DEFINED_CURVE_FONT('continuous');
#176=DRAUGHTING_PRE_DEFINED_CURVE_FONT('continuous');
#177=TRIMMED_CURVE('CUTTING PART LINE',#178,(PARAMETER_VALUE(0.)),(
PARAMETER_VALUE(1.)),.T.,.PARAMETER.);
#178=(
BOUNDED_CURVE()
B_SPLINE_CURVE(3,(#300,#301,#302,#303,#304,#305,#306,#307,#308,#309,#310,
#311,#312,#313,#314,#315),.UNSPECIFIED.,.T.,.F.)
B_SPLINE_CURVE_WITH_KNOTS((4,3,3,3,3,4),(0.,0.32423555846461,0.423948408723928,
0.488222504234223,0.871361252734037,1.),.UNSPECIFIED.)
CURVE()
GEOMETRIC_REPRESENTATION_ITEM()
RATIONAL_B_SPLINE_CURVE((1.,1.,1.,1.,0.794321024033452,0.794321024033452,
1.,1.,1.,1.,1.,1.,1.,1.,1.,1.))
REPRESENTATION_ITEM('CUTTING PART LINE')
);
#179=PRESENTATION_LAYER_ASSIGNMENT('1','Layer 1',(#296,#297,#298,#299,#177,
#215,#216,#217,#45,#46,#47));
#180=STYLED_ITEM('',(#191),#296);
#181=STYLED_ITEM('',(#192),#297);
#182=STYLED_ITEM('',(#193),#298);
#183=STYLED_ITEM('',(#194),#299);
#184=STYLED_ITEM('',(#195),#177);
#185=STYLED_ITEM('',(#196),#215);
#186=STYLED_ITEM('',(#197),#216);
#187=STYLED_ITEM('',(#198),#217);
#188=STYLED_ITEM('',(#199),#45);
#189=STYLED_ITEM('',(#200),#46);
#190=STYLED_ITEM('',(#201),#47);
#191=PRESENTATION_STYLE_ASSIGNMENT((#202));
#192=PRESENTATION_STYLE_ASSIGNMENT((#203));
#193=PRESENTATION_STYLE_ASSIGNMENT((#204));
#194=PRESENTATION_STYLE_ASSIGNMENT((#205));
#195=PRESENTATION_STYLE_ASSIGNMENT((#168));
#196=PRESENTATION_STYLE_ASSIGNMENT((#169));
#197=PRESENTATION_STYLE_ASSIGNMENT((#170));
#198=PRESENTATION_STYLE_ASSIGNMENT((#171));
#199=PRESENTATION_STYLE_ASSIGNMENT((#30));
#200=PRESENTATION_STYLE_ASSIGNMENT((#31));
#201=PRESENTATION_STYLE_ASSIGNMENT((#32));
#202=POINT_STYLE('',#206,POSITIVE_LENGTH_MEASURE(3.),#210);
#203=POINT_STYLE('',#207,POSITIVE_LENGTH_MEASURE(3.),#210);
#204=POINT_STYLE('',#208,POSITIVE_LENGTH_MEASURE(3.),#210);
#205=POINT_STYLE('',#209,POSITIVE_LENGTH_MEASURE(3.),#211);
#206=PRE_DEFINED_POINT_MARKER_SYMBOL('plus');
#207=PRE_DEFINED_POINT_MARKER_SYMBOL('plus');
#208=PRE_DEFINED_POINT_MARKER_SYMBOL('plus');
#209=PRE_DEFINED_POINT_MARKER_SYMBOL('plus');
#210=COLOUR_RGB('Pale Maroon',0.811749446860456,0.603921568627451,0.611749446860456);
#211=COLOUR_RGB('Medium Royal',0.2,0.4,0.8);
#212=COLOUR_RGB('Medium Gray',0.490196078431373,0.490196078431373,0.490196078431373);
#213=COLOUR_RGB('Light Gray',0.8,0.8,0.8);
#214=AXIS2_PLACEMENT_3D('',#295,#241,#242);
#215=AXIS2_PLACEMENT_3D('PCS',#316,#243,#244);
#216=AXIS2_PLACEMENT_3D('MCS',#317,#245,#246);
#217=AXIS2_PLACEMENT_3D('CIP',#318,#247,#248);
#218=AXIS2_PLACEMENT_3D('',#319,#249,#250);
#219=AXIS2_PLACEMENT_3D('',#321,#251,#252);
#220=AXIS2_PLACEMENT_3D('',#322,#253,#254);
#221=AXIS2_PLACEMENT_3D('',#324,#255,#256);
#222=AXIS2_PLACEMENT_3D('',#325,#257,#258);
#223=AXIS2_PLACEMENT_3D('',#327,#259,#260);
#224=AXIS2_PLACEMENT_3D('',#328,#261,#262);
#225=AXIS2_PLACEMENT_3D('',#329,#263,#264);
#226=AXIS2_PLACEMENT_3D('',#331,#265,#266);
#227=AXIS2_PLACEMENT_3D('',#333,#267,#268);
#228=AXIS2_PLACEMENT_3D('',#334,#269,#270);
#229=AXIS2_PLACEMENT_3D('',#336,#271,#272);
#230=AXIS2_PLACEMENT_3D('',#337,#273,#274);
#231=AXIS2_PLACEMENT_3D('',#339,#275,#276);
#232=AXIS2_PLACEMENT_3D('',#340,#277,#278);
#233=AXIS2_PLACEMENT_3D('',#341,#279,#280);
#234=AXIS2_PLACEMENT_3D('',#342,#281,#282);
#235=AXIS2_PLACEMENT_3D('',#345,#283,#284);
#236=AXIS2_PLACEMENT_3D('',#346,#285,#286);
#237=AXIS2_PLACEMENT_3D('',#348,#287,#288);
#238=AXIS2_PLACEMENT_3D('',#349,#289,#290);
#239=AXIS2_PLACEMENT_3D('',#351,#291,#292);
#240=AXIS2_PLACEMENT_3D('',#352,#293,#294);
#241=DIRECTION('',(0.,0.,1.));
#242=DIRECTION('',(1.,0.,0.));
#243=DIRECTION('',(0.,0.,1.));
#244=DIRECTION('',(1.,0.,0.));
#245=DIRECTION('',(0.,0.,1.));
#246=DIRECTION('',(1.,0.,0.));
#247=DIRECTION('',(0.,0.,1.));
#248=DIRECTION('',(1.,0.,0.));
#249=DIRECTION('',(0.,0.,-1.));
#250=DIRECTION('',(-1.,0.,0.));
#251=DIRECTION('',(0.,0.,1.));
#252=DIRECTION('',(-1.,0.,0.));
#253=DIRECTION('',(0.,0.,-1.));
#254=DIRECTION('',(-1.,0.,0.));
#255=DIRECTION('',(0.,0.,-1.));
#256=DIRECTION('',(1.,0.,4.84185284993655E-17));
#257=DIRECTION('',(0.,0.,1.));
#258=DIRECTION('',(1.,0.,0.));
#259=DIRECTION('',(0.,0.,-1.));
#260=DIRECTION('',(1.,0.,0.));
#261=DIRECTION('',(0.,0.,1.));
#262=DIRECTION('',(-1.,0.,0.));
#263=DIRECTION('',(0.,0.,-1.));
#264=DIRECTION('',(-1.,0.,0.));
#265=DIRECTION('',(0.,0.,-1.));
#266=DIRECTION('',(1.,0.,0.));
#267=DIRECTION('',(0.,0.,-1.));
#268=DIRECTION('',(1.,0.,0.));
#269=DIRECTION('',(0.,0.,-1.));
#270=DIRECTION('',(-1.,0.,0.));
#271=DIRECTION('',(0.,0.,-1.));
#272=DIRECTION('',(1.,0.,0.));
#273=DIRECTION('',(0.,0.,-1.));
#274=DIRECTION('',(-1.,0.,0.));
#275=DIRECTION('',(0.,0.,-1.));
#276=DIRECTION('',(1.,0.,0.));
#277=DIRECTION('',(0.,0.,1.));
#278=DIRECTION('',(-1.,0.,2.24257406078404E-16));
#279=DIRECTION('',(0.,0.,1.));
#280=DIRECTION('',(-1.,0.,0.));
#281=DIRECTION('',(0.,0.,-1.));
#282=DIRECTION('',(-1.,0.,0.));
#283=DIRECTION('',(0.,0.,-1.));
#284=DIRECTION('',(1.,0.,2.87810718057382E-18));
#285=DIRECTION('',(0.,0.,-1.));
#286=DIRECTION('',(-1.,0.,0.));
#287=DIRECTION('',(0.,0.,-1.));
#288=DIRECTION('',(1.,0.,0.));
#289=DIRECTION('',(0.,0.,-1.));
#290=DIRECTION('',(-1.,0.,0.));
#291=DIRECTION('',(0.,0.,-1.));
#292=DIRECTION('',(1.,0.,2.48592053995709E-14));
#293=DIRECTION('',(0.,0.,-1.));
#294=DIRECTION('',(1.,0.,0.));
#295=CARTESIAN_POINT('',(0.,0.,0.));
#296=CARTESIAN_POINT('',(0.,0.,34.10966));
#297=CARTESIAN_POINT('',(0.,0.,0.));
#298=CARTESIAN_POINT('',(0.,0.,-16.69034));
#299=CARTESIAN_POINT('CRP',(-1.5875,0.,-16.68961474485));
#300=CARTESIAN_POINT('',(-1.58715089341697,0.,-11.9278399999985));
#301=CARTESIAN_POINT('',(-1.58726726131082,0.,-13.2613178343182));
#302=CARTESIAN_POINT('',(-1.58738362920467,0.,-14.594795668638));
#303=CARTESIAN_POINT('',(-1.58749999709852,0.,-15.9282735029567));
#304=CARTESIAN_POINT('',(-1.58754031419398,0.,-16.3902733842811));
#305=CARTESIAN_POINT('',(-1.25382218839441,0.,-16.7097668967084));
#306=CARTESIAN_POINT('',(-0.792262026827615,0.,-16.6896147448454));
#307=CARTESIAN_POINT('',(-0.528174684551744,0.,-16.6780844424714));
#308=CARTESIAN_POINT('',(-0.264087342275873,0.,-16.6665541400975));
#309=CARTESIAN_POINT('',(-1.33226762955019E-15,0.,-16.6550238377235));
#310=CARTESIAN_POINT('',(0.,0.,-15.0792958918157));
#311=CARTESIAN_POINT('',(0.,0.,-13.5035679459078));
#312=CARTESIAN_POINT('',(0.,0.,-11.92784));
#313=CARTESIAN_POINT('',(-0.529050297805657,0.,-11.92784));
#314=CARTESIAN_POINT('',(-1.05810059561131,0.,-11.92784));
#315=CARTESIAN_POINT('',(-1.58715089341697,0.,-11.92784));
#316=CARTESIAN_POINT('',(0.,0.,34.10966));
#317=CARTESIAN_POINT('',(0.,0.,0.));
#318=CARTESIAN_POINT('',(0.,0.,-16.69034));
#319=CARTESIAN_POINT('',(0.,0.,34.10966));
#320=CARTESIAN_POINT('',(-2.87019999999999,0.,34.10966));
#321=CARTESIAN_POINT('',(2.87019999999999,0.,34.10966));
#322=CARTESIAN_POINT('',(0.,0.,33.80486));
#323=CARTESIAN_POINT('',(-3.175,0.,33.80486));
#324=CARTESIAN_POINT('',(0.,0.,33.80486));
#325=CARTESIAN_POINT('',(0.,0.,0.));
#326=CARTESIAN_POINT('',(3.175,0.,0.));
#327=CARTESIAN_POINT('',(0.,0.,0.));
#328=CARTESIAN_POINT('',(0.,0.,0.));
#329=CARTESIAN_POINT('',(0.,0.,-0.00368011135687141));
#330=CARTESIAN_POINT('',(-3.175,0.,-0.00368011135687141));
#331=CARTESIAN_POINT('',(0.,0.,0.));
#332=CARTESIAN_POINT('',(3.175,0.,0.));
#333=CARTESIAN_POINT('',(0.,0.,0.));
#334=CARTESIAN_POINT('',(0.,0.,-11.92784));
#335=CARTESIAN_POINT('',(-1.5875,0.,-11.92784));
#336=CARTESIAN_POINT('',(1.58715089341697,0.,-11.92784));
#337=CARTESIAN_POINT('',(0.,0.,-9.00684));
#338=CARTESIAN_POINT('',(-1.5875,0.,-9.00684));
#339=CARTESIAN_POINT('',(0.,0.,0.));
#340=CARTESIAN_POINT('',(0.,0.,-9.00684));
#341=CARTESIAN_POINT('',(0.,0.,0.));
#342=CARTESIAN_POINT('',(0.,0.,-16.6896147448454));
#343=CARTESIAN_POINT('',(-0.792262026827615,0.,-16.6896147448454));
#344=CARTESIAN_POINT('',(-2.63468929776661E-15,0.,-16.6550238377235));
#345=CARTESIAN_POINT('',(0.,0.,-16.6550238377235));
#346=CARTESIAN_POINT('',(0.,0.,-15.9282735029556));
#347=CARTESIAN_POINT('',(-1.58749999709852,0.,-15.9282735029556));
#348=CARTESIAN_POINT('',(0.,0.,-15.92834));
#349=CARTESIAN_POINT('',(0.,0.,-11.92784));
#350=CARTESIAN_POINT('',(-1.58715089341697,0.,-11.92784));
#351=CARTESIAN_POINT('',(0.,0.,-15.9282735029556));
#352=CARTESIAN_POINT('',(0.,0.,-11.92784));
#353=MECHANICAL_DESIGN_GEOMETRIC_PRESENTATION_REPRESENTATION('',(#180,#181,
#182,#183,#184,#185,#186,#187,#188,#189,#190),#354);
#354=(
GEOMETRIC_REPRESENTATION_CONTEXT(3)
GLOBAL_UNCERTAINTY_ASSIGNED_CONTEXT((#355))
GLOBAL_UNIT_ASSIGNED_CONTEXT((#361,#357,#356))
REPRESENTATION_CONTEXT('S638R.125F2R030','TOP_LEVEL_ASSEMBLY_PART')
);
#355=UNCERTAINTY_MEASURE_WITH_UNIT(LENGTH_MEASURE(2.E-5),#361,
'DISTANCE_ACCURACY_VALUE','Maximum Tolerance applied to model');
#356=(
NAMED_UNIT(*)
SI_UNIT($,.STERADIAN.)
SOLID_ANGLE_UNIT()
);
#357=(
CONVERSION_BASED_UNIT('DEGREE',#359)
NAMED_UNIT(#358)
PLANE_ANGLE_UNIT()
);
#358=DIMENSIONAL_EXPONENTS(0.,0.,0.,0.,0.,0.,0.);
#359=PLANE_ANGLE_MEASURE_WITH_UNIT(PLANE_ANGLE_MEASURE(0.0174532925),#360);
#360=(
NAMED_UNIT(*)
PLANE_ANGLE_UNIT()
SI_UNIT($,.RADIAN.)
);
#361=(
LENGTH_UNIT()
NAMED_UNIT(*)
SI_UNIT(.MILLI.,.METRE.)
);
ENDSEC;
END-ISO-10303-21;
