ISO-10303-21;
HEADER;
/* Generated by software containing ST-Developer
 * from STEP Tools, Inc. (www.steptools.com) 
 */
/* OPTION: using custom schema-name function */

FILE_DESCRIPTION(
/* description */ (''),
/* implementation_level */ '2;1');

FILE_NAME(
/* name */ 'S638.313D1S.0Z6.stp',
/* time_stamp */ '2022-02-22T15:17:04+06:00',
/* author */ (''),
/* organization */ (''),
/* preprocessor_version */ 'ST-DEVELOPER v16.7',
/* originating_system */ 'SIEMENS PLM Software NX 12.0',
/* authorisation */ '');

FILE_SCHEMA (('AUTOMOTIVE_DESIGN { 1 0 10303 214 3 1 1 1 }'));
ENDSEC;

DATA;
#10=CONSTRUCTIVE_GEOMETRY_REPRESENTATION_RELATIONSHIP(
'supplemental geometry','',#34,#11);
#11=CONSTRUCTIVE_GEOMETRY_REPRESENTATION('supplemental geometry',(#190,
#191,#192),#299);
#12=GEOMETRICALLY_BOUNDED_WIREFRAME_SHAPE_REPRESENTATION(
'S638.313D1S.0Z6-None',(#35),#299);
#13=PROPERTY_DEFINITION_REPRESENTATION(#17,#15);
#14=PROPERTY_DEFINITION_REPRESENTATION(#18,#16);
#15=REPRESENTATION('',(#19),#299);
#16=REPRESENTATION('',(#20),#299);
#17=PROPERTY_DEFINITION('pmi validation property','',#25);
#18=PROPERTY_DEFINITION('pmi validation property','',#25);
#19=VALUE_REPRESENTATION_ITEM('number of annotations',COUNT_MEASURE(0.));
#20=VALUE_REPRESENTATION_ITEM('number of views',COUNT_MEASURE(0.));
#21=SHAPE_REPRESENTATION_RELATIONSHIP('None',
'relationship between S638.313D1S.0Z6-None and S638.313D1S.0Z6-None',#34,
#23);
#22=SHAPE_REPRESENTATION_RELATIONSHIP('None',
'relationship between S638.313D1S.0Z6-None and S638.313D1S.0Z6-None',#34,
#12);
#23=ADVANCED_BREP_SHAPE_REPRESENTATION('S638.313D1S.0Z6-None',(#52,#53,
#54),#299);
#24=SHAPE_DEFINITION_REPRESENTATION(#25,#34);
#25=PRODUCT_DEFINITION_SHAPE('','',#26);
#26=PRODUCT_DEFINITION(' ','',#28,#27);
#27=PRODUCT_DEFINITION_CONTEXT('part definition',#33,'design');
#28=PRODUCT_DEFINITION_FORMATION_WITH_SPECIFIED_SOURCE(' ',' ',#30,
 .NOT_KNOWN.);
#29=PRODUCT_RELATED_PRODUCT_CATEGORY('part','',(#30));
#30=PRODUCT('inpu2ACCD33Dlk1g','inpu2ACCD33Dlk1g',' ',(#31));
#31=PRODUCT_CONTEXT(' ',#33,'mechanical');
#32=APPLICATION_PROTOCOL_DEFINITION('international standard',
'automotive_design',2010,#33);
#33=APPLICATION_CONTEXT(
'core data for automotive mechanical design processes');
#34=SHAPE_REPRESENTATION('S638.313D1S.0Z6-None',(#189),#299);
#35=GEOMETRIC_CURVE_SET('None',(#253,#254,#255,#256,#152));
#36=VERTEX_LOOP('',#127);
#37=SURFACE_STYLE_USAGE(.BOTH.,#40);
#38=SURFACE_STYLE_USAGE(.BOTH.,#41);
#39=SURFACE_STYLE_USAGE(.BOTH.,#42);
#40=SURFACE_SIDE_STYLE('',(#43));
#41=SURFACE_SIDE_STYLE('',(#44));
#42=SURFACE_SIDE_STYLE('',(#45));
#43=SURFACE_STYLE_FILL_AREA(#46);
#44=SURFACE_STYLE_FILL_AREA(#47);
#45=SURFACE_STYLE_FILL_AREA(#48);
#46=FILL_AREA_STYLE('',(#49));
#47=FILL_AREA_STYLE('',(#50));
#48=FILL_AREA_STYLE('',(#51));
#49=FILL_AREA_STYLE_COLOUR('',#187);
#50=FILL_AREA_STYLE_COLOUR('',#188);
#51=FILL_AREA_STYLE_COLOUR('',#188);
#52=MANIFOLD_SOLID_BREP('NOCUT',#55);
#53=MANIFOLD_SOLID_BREP('CUT',#56);
#54=MANIFOLD_SOLID_BREP('CUT',#57);
#55=CLOSED_SHELL('',(#73,#74,#75,#76));
#56=CLOSED_SHELL('',(#77,#78,#79));
#57=CLOSED_SHELL('',(#80,#81,#82));
#58=CYLINDRICAL_SURFACE('',#198,3.96875);
#59=CYLINDRICAL_SURFACE('',#202,3.96875);
#60=CONICAL_SURFACE('',#196,3.96875,44.9999999999999);
#61=CONICAL_SURFACE('',#206,2.5828391864152E-15,87.5);
#62=CONICAL_SURFACE('',#208,3.96875,0.00999999999999756);
#63=FACE_BOUND('',#94,.T.);
#64=FACE_BOUND('',#95,.T.);
#65=FACE_BOUND('',#96,.T.);
#66=FACE_BOUND('',#97,.T.);
#67=FACE_BOUND('',#99,.T.);
#68=FACE_BOUND('',#100,.T.);
#69=FACE_BOUND('',#103,.T.);
#70=FACE_BOUND('',#36,.T.);
#71=FACE_BOUND('',#104,.T.);
#72=FACE_BOUND('',#105,.T.);
#73=ADVANCED_FACE('',(#88),#83,.T.);
#74=ADVANCED_FACE('',(#63,#64),#60,.T.);
#75=ADVANCED_FACE('',(#65,#66),#58,.T.);
#76=ADVANCED_FACE('',(#89),#84,.F.);
#77=ADVANCED_FACE('',(#67,#68),#59,.T.);
#78=ADVANCED_FACE('',(#90),#85,.T.);
#79=ADVANCED_FACE('',(#91),#86,.T.);
#80=ADVANCED_FACE('',(#69,#70),#61,.F.);
#81=ADVANCED_FACE('',(#71,#72),#62,.T.);
#82=ADVANCED_FACE('',(#92),#87,.F.);
#83=PLANE('',#194);
#84=PLANE('',#199);
#85=PLANE('',#203);
#86=PLANE('',#204);
#87=PLANE('',#209);
#88=FACE_OUTER_BOUND('',#93,.T.);
#89=FACE_OUTER_BOUND('',#98,.T.);
#90=FACE_OUTER_BOUND('',#101,.T.);
#91=FACE_OUTER_BOUND('',#102,.T.);
#92=FACE_OUTER_BOUND('',#106,.T.);
#93=EDGE_LOOP('',(#107));
#94=EDGE_LOOP('',(#108));
#95=EDGE_LOOP('',(#109));
#96=EDGE_LOOP('',(#110));
#97=EDGE_LOOP('',(#111));
#98=EDGE_LOOP('',(#112));
#99=EDGE_LOOP('',(#113));
#100=EDGE_LOOP('',(#114));
#101=EDGE_LOOP('',(#115));
#102=EDGE_LOOP('',(#116));
#103=EDGE_LOOP('',(#117));
#104=EDGE_LOOP('',(#118));
#105=EDGE_LOOP('',(#119));
#106=EDGE_LOOP('',(#120));
#107=ORIENTED_EDGE('',*,*,#129,.F.);
#108=ORIENTED_EDGE('',*,*,#129,.T.);
#109=ORIENTED_EDGE('',*,*,#130,.F.);
#110=ORIENTED_EDGE('',*,*,#131,.F.);
#111=ORIENTED_EDGE('',*,*,#130,.T.);
#112=ORIENTED_EDGE('',*,*,#131,.T.);
#113=ORIENTED_EDGE('',*,*,#132,.F.);
#114=ORIENTED_EDGE('',*,*,#133,.F.);
#115=ORIENTED_EDGE('',*,*,#132,.T.);
#116=ORIENTED_EDGE('',*,*,#133,.T.);
#117=ORIENTED_EDGE('',*,*,#134,.T.);
#118=ORIENTED_EDGE('',*,*,#135,.T.);
#119=ORIENTED_EDGE('',*,*,#134,.F.);
#120=ORIENTED_EDGE('',*,*,#135,.F.);
#121=VERTEX_POINT('',#274);
#122=VERTEX_POINT('',#277);
#123=VERTEX_POINT('',#280);
#124=VERTEX_POINT('',#284);
#125=VERTEX_POINT('',#286);
#126=VERTEX_POINT('',#291);
#127=VERTEX_POINT('',#292);
#128=VERTEX_POINT('',#295);
#129=EDGE_CURVE('',#121,#121,#136,.T.);
#130=EDGE_CURVE('',#122,#122,#137,.T.);
#131=EDGE_CURVE('',#123,#123,#138,.T.);
#132=EDGE_CURVE('',#124,#124,#139,.T.);
#133=EDGE_CURVE('',#125,#125,#140,.T.);
#134=EDGE_CURVE('',#126,#126,#141,.T.);
#135=EDGE_CURVE('',#128,#128,#142,.T.);
#136=CIRCLE('',#193,3.66395);
#137=CIRCLE('',#195,3.96875);
#138=CIRCLE('',#197,3.96875);
#139=CIRCLE('',#200,3.96875);
#140=CIRCLE('',#201,3.96875);
#141=CIRCLE('',#205,3.96875);
#142=CIRCLE('',#207,3.96681050284903);
#143=CURVE_STYLE('',#148,POSITIVE_LENGTH_MEASURE(0.18),#147);
#144=CURVE_STYLE('',#149,POSITIVE_LENGTH_MEASURE(0.18),#185);
#145=CURVE_STYLE('',#150,POSITIVE_LENGTH_MEASURE(0.18),#185);
#146=CURVE_STYLE('',#151,POSITIVE_LENGTH_MEASURE(0.18),#185);
#147=DRAUGHTING_PRE_DEFINED_COLOUR('blue');
#148=DRAUGHTING_PRE_DEFINED_CURVE_FONT('continuous');
#149=DRAUGHTING_PRE_DEFINED_CURVE_FONT('continuous');
#150=DRAUGHTING_PRE_DEFINED_CURVE_FONT('continuous');
#151=DRAUGHTING_PRE_DEFINED_CURVE_FONT('continuous');
#152=B_SPLINE_CURVE_WITH_KNOTS('CUTTING PART LINE',3,(#257,#258,#259,#260,
#261,#262,#263,#264,#265,#266,#267,#268,#269),.UNSPECIFIED.,.T.,.F.,(4,
3,3,3,4),(0.,0.370527061284978,0.502984222452087,0.867733577872001,1.),
 .UNSPECIFIED.);
#153=PRESENTATION_LAYER_ASSIGNMENT('1','Layer 1',(#253,#254,#255,#256,#152,
#190,#191,#192,#52,#53));
#154=PRESENTATION_LAYER_ASSIGNMENT('3','Layer 3',(#54));
#155=STYLED_ITEM('',(#166),#253);
#156=STYLED_ITEM('',(#167),#254);
#157=STYLED_ITEM('',(#168),#255);
#158=STYLED_ITEM('',(#169),#256);
#159=STYLED_ITEM('',(#170),#152);
#160=STYLED_ITEM('',(#171),#190);
#161=STYLED_ITEM('',(#172),#191);
#162=STYLED_ITEM('',(#173),#192);
#163=STYLED_ITEM('',(#174),#52);
#164=STYLED_ITEM('',(#175),#53);
#165=STYLED_ITEM('',(#176),#54);
#166=PRESENTATION_STYLE_ASSIGNMENT((#177));
#167=PRESENTATION_STYLE_ASSIGNMENT((#178));
#168=PRESENTATION_STYLE_ASSIGNMENT((#179));
#169=PRESENTATION_STYLE_ASSIGNMENT((#180));
#170=PRESENTATION_STYLE_ASSIGNMENT((#143));
#171=PRESENTATION_STYLE_ASSIGNMENT((#144));
#172=PRESENTATION_STYLE_ASSIGNMENT((#145));
#173=PRESENTATION_STYLE_ASSIGNMENT((#146));
#174=PRESENTATION_STYLE_ASSIGNMENT((#37));
#175=PRESENTATION_STYLE_ASSIGNMENT((#38));
#176=PRESENTATION_STYLE_ASSIGNMENT((#39));
#177=POINT_STYLE('',#181,POSITIVE_LENGTH_MEASURE(3.),#185);
#178=POINT_STYLE('',#182,POSITIVE_LENGTH_MEASURE(3.),#185);
#179=POINT_STYLE('',#183,POSITIVE_LENGTH_MEASURE(3.),#185);
#180=POINT_STYLE('',#184,POSITIVE_LENGTH_MEASURE(3.),#186);
#181=PRE_DEFINED_POINT_MARKER_SYMBOL('plus');
#182=PRE_DEFINED_POINT_MARKER_SYMBOL('plus');
#183=PRE_DEFINED_POINT_MARKER_SYMBOL('plus');
#184=PRE_DEFINED_POINT_MARKER_SYMBOL('plus');
#185=COLOUR_RGB('Pale Maroon',0.811749446860456,0.603921568627451,0.611749446860456);
#186=COLOUR_RGB('Medium Royal',0.2,0.4,0.8);
#187=COLOUR_RGB('Medium Gray',0.490196078431373,0.490196078431373,0.490196078431373);
#188=COLOUR_RGB('Light Gray',0.8,0.8,0.8);
#189=AXIS2_PLACEMENT_3D('',#252,#210,#211);
#190=AXIS2_PLACEMENT_3D('PCS',#270,#212,#213);
#191=AXIS2_PLACEMENT_3D('MCS',#271,#214,#215);
#192=AXIS2_PLACEMENT_3D('CIP',#272,#216,#217);
#193=AXIS2_PLACEMENT_3D('',#273,#218,#219);
#194=AXIS2_PLACEMENT_3D('',#275,#220,#221);
#195=AXIS2_PLACEMENT_3D('',#276,#222,#223);
#196=AXIS2_PLACEMENT_3D('',#278,#224,#225);
#197=AXIS2_PLACEMENT_3D('',#279,#226,#227);
#198=AXIS2_PLACEMENT_3D('',#281,#228,#229);
#199=AXIS2_PLACEMENT_3D('',#282,#230,#231);
#200=AXIS2_PLACEMENT_3D('',#283,#232,#233);
#201=AXIS2_PLACEMENT_3D('',#285,#234,#235);
#202=AXIS2_PLACEMENT_3D('',#287,#236,#237);
#203=AXIS2_PLACEMENT_3D('',#288,#238,#239);
#204=AXIS2_PLACEMENT_3D('',#289,#240,#241);
#205=AXIS2_PLACEMENT_3D('',#290,#242,#243);
#206=AXIS2_PLACEMENT_3D('',#293,#244,#245);
#207=AXIS2_PLACEMENT_3D('',#294,#246,#247);
#208=AXIS2_PLACEMENT_3D('',#296,#248,#249);
#209=AXIS2_PLACEMENT_3D('',#297,#250,#251);
#210=DIRECTION('',(0.,0.,1.));
#211=DIRECTION('',(1.,0.,0.));
#212=DIRECTION('',(0.,0.,1.));
#213=DIRECTION('',(1.,0.,0.));
#214=DIRECTION('',(0.,0.,1.));
#215=DIRECTION('',(1.,0.,0.));
#216=DIRECTION('',(0.,0.,1.));
#217=DIRECTION('',(1.,0.,0.));
#218=DIRECTION('',(0.,0.,-1.));
#219=DIRECTION('',(-1.,0.,0.));
#220=DIRECTION('',(0.,0.,1.));
#221=DIRECTION('',(-1.,0.,0.));
#222=DIRECTION('',(0.,0.,-1.));
#223=DIRECTION('',(-1.,0.,0.));
#224=DIRECTION('',(0.,0.,-1.));
#225=DIRECTION('',(1.,0.,3.45573201551704E-17));
#226=DIRECTION('',(0.,0.,-1.));
#227=DIRECTION('',(1.,0.,0.));
#228=DIRECTION('',(0.,0.,-1.));
#229=DIRECTION('',(1.,0.,0.));
#230=DIRECTION('',(0.,0.,1.));
#231=DIRECTION('',(-1.,0.,0.));
#232=DIRECTION('',(0.,0.,-1.));
#233=DIRECTION('',(-1.,0.,0.));
#234=DIRECTION('',(0.,0.,1.));
#235=DIRECTION('',(1.,0.,0.));
#236=DIRECTION('',(0.,0.,-1.));
#237=DIRECTION('',(1.,0.,0.));
#238=DIRECTION('',(0.,0.,-1.));
#239=DIRECTION('',(1.,0.,0.));
#240=DIRECTION('',(0.,0.,1.));
#241=DIRECTION('',(-1.,0.,0.));
#242=DIRECTION('',(0.,0.,-1.));
#243=DIRECTION('',(-1.,0.,0.));
#244=DIRECTION('',(0.,0.,-1.));
#245=DIRECTION('',(1.,0.,-3.48402448174725E-18));
#246=DIRECTION('',(0.,0.,-1.));
#247=DIRECTION('',(-1.,0.,0.));
#248=DIRECTION('',(0.,0.,-1.));
#249=DIRECTION('',(1.,0.,1.84220663392565E-14));
#250=DIRECTION('',(0.,0.,-1.));
#251=DIRECTION('',(1.,0.,0.));
#252=CARTESIAN_POINT('',(0.,0.,0.));
#253=CARTESIAN_POINT('',(0.,0.,36.));
#254=CARTESIAN_POINT('',(0.,0.,0.));
#255=CARTESIAN_POINT('',(0.,0.,-14.8));
#256=CARTESIAN_POINT('CRP',(-3.96875,0.,-14.8));
#257=CARTESIAN_POINT('',(-3.96681050284903,0.,-3.68750000000162));
#258=CARTESIAN_POINT('',(-3.96745700189935,0.,-7.39166666666809));
#259=CARTESIAN_POINT('',(-3.96810350094968,0.,-11.0958333333346));
#260=CARTESIAN_POINT('',(-3.96875,0.,-14.8000000000005));
#261=CARTESIAN_POINT('',(-2.64583333333334,0.,-14.7422402109439));
#262=CARTESIAN_POINT('',(-1.32291666666667,0.,-14.6844804218879));
#263=CARTESIAN_POINT('',(-1.33226762955019E-15,0.,-14.6267206328318));
#264=CARTESIAN_POINT('',(0.,0.,-10.9803137552212));
#265=CARTESIAN_POINT('',(0.,0.,-7.3339068776106));
#266=CARTESIAN_POINT('',(0.,0.,-3.6875));
#267=CARTESIAN_POINT('',(-1.32227016761634,0.,-3.6875));
#268=CARTESIAN_POINT('',(-2.64454033523269,0.,-3.6875));
#269=CARTESIAN_POINT('',(-3.96681050284903,0.,-3.6875));
#270=CARTESIAN_POINT('',(0.,0.,36.));
#271=CARTESIAN_POINT('',(0.,0.,0.));
#272=CARTESIAN_POINT('',(0.,0.,-14.8));
#273=CARTESIAN_POINT('',(0.,0.,36.));
#274=CARTESIAN_POINT('',(-3.66395,0.,36.));
#275=CARTESIAN_POINT('',(3.66395,0.,36.));
#276=CARTESIAN_POINT('',(0.,0.,35.6952));
#277=CARTESIAN_POINT('',(-3.96875,0.,35.6952));
#278=CARTESIAN_POINT('',(0.,0.,35.6952));
#279=CARTESIAN_POINT('',(0.,0.,0.));
#280=CARTESIAN_POINT('',(3.96875,0.,0.));
#281=CARTESIAN_POINT('',(0.,0.,0.));
#282=CARTESIAN_POINT('',(0.,0.,0.));
#283=CARTESIAN_POINT('',(0.,0.,-3.6875));
#284=CARTESIAN_POINT('',(-3.96875,0.,-3.6875));
#285=CARTESIAN_POINT('',(0.,0.,0.));
#286=CARTESIAN_POINT('',(3.96875,0.,0.));
#287=CARTESIAN_POINT('',(0.,0.,0.));
#288=CARTESIAN_POINT('',(3.96681050284903,0.,-3.6875));
#289=CARTESIAN_POINT('',(0.,0.,0.));
#290=CARTESIAN_POINT('',(0.,0.,-14.8));
#291=CARTESIAN_POINT('',(-3.96875,0.,-14.8));
#292=CARTESIAN_POINT('',(-2.5828391864152E-15,0.,-14.6267206328318));
#293=CARTESIAN_POINT('',(0.,0.,-14.6267206328318));
#294=CARTESIAN_POINT('',(0.,0.,-3.6875));
#295=CARTESIAN_POINT('',(-3.96681050284903,0.,-3.6875));
#296=CARTESIAN_POINT('',(0.,0.,-14.8));
#297=CARTESIAN_POINT('',(0.,0.,-3.6875));
#298=MECHANICAL_DESIGN_GEOMETRIC_PRESENTATION_REPRESENTATION('',(#155,#156,
#157,#158,#159,#160,#161,#162,#163,#164,#165),#299);
#299=(
GEOMETRIC_REPRESENTATION_CONTEXT(3)
GLOBAL_UNCERTAINTY_ASSIGNED_CONTEXT((#300))
GLOBAL_UNIT_ASSIGNED_CONTEXT((#306,#302,#301))
REPRESENTATION_CONTEXT('S638.313D1S','TOP_LEVEL_ASSEMBLY_PART')
);
#300=UNCERTAINTY_MEASURE_WITH_UNIT(LENGTH_MEASURE(2.E-5),#306,
'DISTANCE_ACCURACY_VALUE','Maximum Tolerance applied to model');
#301=(
NAMED_UNIT(*)
SI_UNIT($,.STERADIAN.)
SOLID_ANGLE_UNIT()
);
#302=(
CONVERSION_BASED_UNIT('DEGREE',#304)
NAMED_UNIT(#303)
PLANE_ANGLE_UNIT()
);
#303=DIMENSIONAL_EXPONENTS(0.,0.,0.,0.,0.,0.,0.);
#304=PLANE_ANGLE_MEASURE_WITH_UNIT(PLANE_ANGLE_MEASURE(0.0174532925),#305);
#305=(
NAMED_UNIT(*)
PLANE_ANGLE_UNIT()
SI_UNIT($,.RADIAN.)
);
#306=(
LENGTH_UNIT()
NAMED_UNIT(*)
SI_UNIT(.MILLI.,.METRE.)
);
ENDSEC;
END-ISO-10303-21;
