ISO-10303-21;
HEADER;
/* Generated by software containing ST-Developer
 * from STEP Tools, Inc. (www.steptools.com) 
 */
/* OPTION: using custom schema-name function */

FILE_DESCRIPTION(
/* description */ (''),
/* implementation_level */ '2;1');

FILE_NAME(
/* name */ 'S638.125F2S.0Z6_Basic.stp',
/* time_stamp */ '2022-02-15T15:40:18+05:00',
/* author */ (''),
/* organization */ (''),
/* preprocessor_version */ 'ST-DEVELOPER v16.7',
/* originating_system */ 'SIEMENS PLM Software NX 12.0',
/* authorisation */ '');

FILE_SCHEMA (('AUTOMOTIVE_DESIGN { 1 0 10303 214 3 1 1 1 }'));
ENDSEC;

DATA;
#10=CONSTRUCTIVE_GEOMETRY_REPRESENTATION_RELATIONSHIP(
'supplemental geometry','',#34,#11);
#11=CONSTRUCTIVE_GEOMETRY_REPRESENTATION('supplemental geometry',(#200,
#201,#202),#318);
#12=GEOMETRICALLY_BOUNDED_WIREFRAME_SHAPE_REPRESENTATION(
'S638.125F2S.0Z6_Basic-None',(#35),#318);
#13=PROPERTY_DEFINITION_REPRESENTATION(#17,#15);
#14=PROPERTY_DEFINITION_REPRESENTATION(#18,#16);
#15=REPRESENTATION('',(#19),#318);
#16=REPRESENTATION('',(#20),#318);
#17=PROPERTY_DEFINITION('pmi validation property','',#25);
#18=PROPERTY_DEFINITION('pmi validation property','',#25);
#19=VALUE_REPRESENTATION_ITEM('number of annotations',COUNT_MEASURE(0.));
#20=VALUE_REPRESENTATION_ITEM('number of views',COUNT_MEASURE(0.));
#21=SHAPE_REPRESENTATION_RELATIONSHIP('None',
'relationship between S638.125F2S.0Z6_Basic-None and S638.125F2S.0Z6_B
asic-None',#34,#23);
#22=SHAPE_REPRESENTATION_RELATIONSHIP('None',
'relationship between S638.125F2S.0Z6_Basic-None and S638.125F2S.0Z6_B
asic-None',#34,#12);
#23=ADVANCED_BREP_SHAPE_REPRESENTATION('S638.125F2S.0Z6_Basic-None',(#52,
#53,#54),#318);
#24=SHAPE_DEFINITION_REPRESENTATION(#25,#34);
#25=PRODUCT_DEFINITION_SHAPE('','',#26);
#26=PRODUCT_DEFINITION(' ','',#28,#27);
#27=PRODUCT_DEFINITION_CONTEXT('part definition',#33,'design');
#28=PRODUCT_DEFINITION_FORMATION_WITH_SPECIFIED_SOURCE(' ',' ',#30,
 .NOT_KNOWN.);
#29=PRODUCT_RELATED_PRODUCT_CATEGORY('part','',(#30));
#30=PRODUCT('inpu44807291n97y','inpu44807291n97y',' ',(#31));
#31=PRODUCT_CONTEXT(' ',#33,'mechanical');
#32=APPLICATION_PROTOCOL_DEFINITION('international standard',
'automotive_design',2010,#33);
#33=APPLICATION_CONTEXT(
'core data for automotive mechanical design processes');
#34=SHAPE_REPRESENTATION('S638.125F2S.0Z6_Basic-None',(#199),#318);
#35=GEOMETRIC_CURVE_SET('None',(#269,#270,#271,#272,#163));
#36=VERTEX_LOOP('',#136);
#37=SURFACE_STYLE_USAGE(.BOTH.,#40);
#38=SURFACE_STYLE_USAGE(.BOTH.,#41);
#39=SURFACE_STYLE_USAGE(.BOTH.,#42);
#40=SURFACE_SIDE_STYLE('',(#43));
#41=SURFACE_SIDE_STYLE('',(#44));
#42=SURFACE_SIDE_STYLE('',(#45));
#43=SURFACE_STYLE_FILL_AREA(#46);
#44=SURFACE_STYLE_FILL_AREA(#47);
#45=SURFACE_STYLE_FILL_AREA(#48);
#46=FILL_AREA_STYLE('',(#49));
#47=FILL_AREA_STYLE('',(#50));
#48=FILL_AREA_STYLE('',(#51));
#49=FILL_AREA_STYLE_COLOUR('',#197);
#50=FILL_AREA_STYLE_COLOUR('',#197);
#51=FILL_AREA_STYLE_COLOUR('',#198);
#52=MANIFOLD_SOLID_BREP('NOCUT',#55);
#53=MANIFOLD_SOLID_BREP('NOCUT',#56);
#54=MANIFOLD_SOLID_BREP('CUT',#57);
#55=CLOSED_SHELL('',(#76,#77,#78,#79));
#56=CLOSED_SHELL('',(#80,#81,#82,#83));
#57=CLOSED_SHELL('',(#84,#85,#86));
#58=CYLINDRICAL_SURFACE('',#208,3.175);
#59=CYLINDRICAL_SURFACE('',#213,1.58750000000001);
#60=CONICAL_SURFACE('',#206,3.175,44.9999999999993);
#61=CONICAL_SURFACE('',#215,1.58750000000001,10.);
#62=CONICAL_SURFACE('',#218,2.8521641331071E-15,87.4999999999997);
#63=CONICAL_SURFACE('',#220,1.5875,0.00999999999999196);
#64=FACE_BOUND('',#98,.T.);
#65=FACE_BOUND('',#99,.T.);
#66=FACE_BOUND('',#100,.T.);
#67=FACE_BOUND('',#101,.T.);
#68=FACE_BOUND('',#104,.T.);
#69=FACE_BOUND('',#105,.T.);
#70=FACE_BOUND('',#106,.T.);
#71=FACE_BOUND('',#107,.T.);
#72=FACE_BOUND('',#109,.T.);
#73=FACE_BOUND('',#36,.T.);
#74=FACE_BOUND('',#110,.T.);
#75=FACE_BOUND('',#111,.T.);
#76=ADVANCED_FACE('',(#92),#87,.T.);
#77=ADVANCED_FACE('',(#64,#65),#60,.T.);
#78=ADVANCED_FACE('',(#66,#67),#58,.T.);
#79=ADVANCED_FACE('',(#93),#88,.F.);
#80=ADVANCED_FACE('',(#94),#89,.T.);
#81=ADVANCED_FACE('',(#68,#69),#59,.T.);
#82=ADVANCED_FACE('',(#70,#71),#61,.T.);
#83=ADVANCED_FACE('',(#95),#90,.T.);
#84=ADVANCED_FACE('',(#72,#73),#62,.F.);
#85=ADVANCED_FACE('',(#74,#75),#63,.T.);
#86=ADVANCED_FACE('',(#96),#91,.F.);
#87=PLANE('',#204);
#88=PLANE('',#209);
#89=PLANE('',#211);
#90=PLANE('',#216);
#91=PLANE('',#221);
#92=FACE_OUTER_BOUND('',#97,.T.);
#93=FACE_OUTER_BOUND('',#102,.T.);
#94=FACE_OUTER_BOUND('',#103,.T.);
#95=FACE_OUTER_BOUND('',#108,.T.);
#96=FACE_OUTER_BOUND('',#112,.T.);
#97=EDGE_LOOP('',(#113));
#98=EDGE_LOOP('',(#114));
#99=EDGE_LOOP('',(#115));
#100=EDGE_LOOP('',(#116));
#101=EDGE_LOOP('',(#117));
#102=EDGE_LOOP('',(#118));
#103=EDGE_LOOP('',(#119));
#104=EDGE_LOOP('',(#120));
#105=EDGE_LOOP('',(#121));
#106=EDGE_LOOP('',(#122));
#107=EDGE_LOOP('',(#123));
#108=EDGE_LOOP('',(#124));
#109=EDGE_LOOP('',(#125));
#110=EDGE_LOOP('',(#126));
#111=EDGE_LOOP('',(#127));
#112=EDGE_LOOP('',(#128));
#113=ORIENTED_EDGE('',*,*,#138,.F.);
#114=ORIENTED_EDGE('',*,*,#138,.T.);
#115=ORIENTED_EDGE('',*,*,#139,.F.);
#116=ORIENTED_EDGE('',*,*,#139,.T.);
#117=ORIENTED_EDGE('',*,*,#140,.T.);
#118=ORIENTED_EDGE('',*,*,#140,.F.);
#119=ORIENTED_EDGE('',*,*,#141,.T.);
#120=ORIENTED_EDGE('',*,*,#142,.T.);
#121=ORIENTED_EDGE('',*,*,#141,.F.);
#122=ORIENTED_EDGE('',*,*,#143,.T.);
#123=ORIENTED_EDGE('',*,*,#142,.F.);
#124=ORIENTED_EDGE('',*,*,#143,.F.);
#125=ORIENTED_EDGE('',*,*,#144,.T.);
#126=ORIENTED_EDGE('',*,*,#145,.T.);
#127=ORIENTED_EDGE('',*,*,#144,.F.);
#128=ORIENTED_EDGE('',*,*,#145,.F.);
#129=VERTEX_POINT('',#290);
#130=VERTEX_POINT('',#293);
#131=VERTEX_POINT('',#296);
#132=VERTEX_POINT('',#300);
#133=VERTEX_POINT('',#303);
#134=VERTEX_POINT('',#306);
#135=VERTEX_POINT('',#310);
#136=VERTEX_POINT('',#311);
#137=VERTEX_POINT('',#314);
#138=EDGE_CURVE('',#129,#129,#146,.T.);
#139=EDGE_CURVE('',#130,#130,#147,.T.);
#140=EDGE_CURVE('',#131,#131,#148,.T.);
#141=EDGE_CURVE('',#132,#132,#149,.T.);
#142=EDGE_CURVE('',#133,#133,#150,.T.);
#143=EDGE_CURVE('',#134,#134,#151,.T.);
#144=EDGE_CURVE('',#135,#135,#152,.T.);
#145=EDGE_CURVE('',#137,#137,#153,.T.);
#146=CIRCLE('',#203,2.8702);
#147=CIRCLE('',#205,3.175);
#148=CIRCLE('',#207,3.175);
#149=CIRCLE('',#210,1.58750000000001);
#150=CIRCLE('',#212,1.58750000000001);
#151=CIRCLE('',#214,3.175);
#152=CIRCLE('',#217,1.5875);
#153=CIRCLE('',#219,1.5866687869353);
#154=CURVE_STYLE('',#159,POSITIVE_LENGTH_MEASURE(0.18),#158);
#155=CURVE_STYLE('',#160,POSITIVE_LENGTH_MEASURE(0.18),#195);
#156=CURVE_STYLE('',#161,POSITIVE_LENGTH_MEASURE(0.18),#195);
#157=CURVE_STYLE('',#162,POSITIVE_LENGTH_MEASURE(0.18),#195);
#158=DRAUGHTING_PRE_DEFINED_COLOUR('blue');
#159=DRAUGHTING_PRE_DEFINED_CURVE_FONT('continuous');
#160=DRAUGHTING_PRE_DEFINED_CURVE_FONT('continuous');
#161=DRAUGHTING_PRE_DEFINED_CURVE_FONT('continuous');
#162=DRAUGHTING_PRE_DEFINED_CURVE_FONT('continuous');
#163=B_SPLINE_CURVE_WITH_KNOTS('CUTTING PART LINE',3,(#273,#274,#275,#276,
#277,#278,#279,#280,#281,#282,#283,#284,#285),.UNSPECIFIED.,.T.,.F.,(4,
3,3,3,4),(0.,0.377037507489769,0.502836407410116,0.874386638211523,1.),
 .UNSPECIFIED.);
#164=PRESENTATION_LAYER_ASSIGNMENT('1','Layer 1',(#269,#270,#271,#272,#163,
#200,#201,#202,#52,#53,#54));
#165=STYLED_ITEM('',(#176),#269);
#166=STYLED_ITEM('',(#177),#270);
#167=STYLED_ITEM('',(#178),#271);
#168=STYLED_ITEM('',(#179),#272);
#169=STYLED_ITEM('',(#180),#163);
#170=STYLED_ITEM('',(#181),#200);
#171=STYLED_ITEM('',(#182),#201);
#172=STYLED_ITEM('',(#183),#202);
#173=STYLED_ITEM('',(#184),#52);
#174=STYLED_ITEM('',(#185),#53);
#175=STYLED_ITEM('',(#186),#54);
#176=PRESENTATION_STYLE_ASSIGNMENT((#187));
#177=PRESENTATION_STYLE_ASSIGNMENT((#188));
#178=PRESENTATION_STYLE_ASSIGNMENT((#189));
#179=PRESENTATION_STYLE_ASSIGNMENT((#190));
#180=PRESENTATION_STYLE_ASSIGNMENT((#154));
#181=PRESENTATION_STYLE_ASSIGNMENT((#155));
#182=PRESENTATION_STYLE_ASSIGNMENT((#156));
#183=PRESENTATION_STYLE_ASSIGNMENT((#157));
#184=PRESENTATION_STYLE_ASSIGNMENT((#37));
#185=PRESENTATION_STYLE_ASSIGNMENT((#38));
#186=PRESENTATION_STYLE_ASSIGNMENT((#39));
#187=POINT_STYLE('',#191,POSITIVE_LENGTH_MEASURE(3.),#195);
#188=POINT_STYLE('',#192,POSITIVE_LENGTH_MEASURE(3.),#195);
#189=POINT_STYLE('',#193,POSITIVE_LENGTH_MEASURE(3.),#195);
#190=POINT_STYLE('',#194,POSITIVE_LENGTH_MEASURE(3.),#196);
#191=PRE_DEFINED_POINT_MARKER_SYMBOL('plus');
#192=PRE_DEFINED_POINT_MARKER_SYMBOL('plus');
#193=PRE_DEFINED_POINT_MARKER_SYMBOL('plus');
#194=PRE_DEFINED_POINT_MARKER_SYMBOL('plus');
#195=COLOUR_RGB('Pale Maroon',0.811749446860456,0.603921568627451,0.611749446860456);
#196=COLOUR_RGB('Medium Royal',0.2,0.4,0.8);
#197=COLOUR_RGB('Medium Gray',0.490196078431373,0.490196078431373,0.490196078431373);
#198=COLOUR_RGB('Light Gray',0.8,0.8,0.8);
#199=AXIS2_PLACEMENT_3D('',#268,#222,#223);
#200=AXIS2_PLACEMENT_3D('PCS',#286,#224,#225);
#201=AXIS2_PLACEMENT_3D('MCS',#287,#226,#227);
#202=AXIS2_PLACEMENT_3D('CIP',#288,#228,#229);
#203=AXIS2_PLACEMENT_3D('',#289,#230,#231);
#204=AXIS2_PLACEMENT_3D('',#291,#232,#233);
#205=AXIS2_PLACEMENT_3D('',#292,#234,#235);
#206=AXIS2_PLACEMENT_3D('',#294,#236,#237);
#207=AXIS2_PLACEMENT_3D('',#295,#238,#239);
#208=AXIS2_PLACEMENT_3D('',#297,#240,#241);
#209=AXIS2_PLACEMENT_3D('',#298,#242,#243);
#210=AXIS2_PLACEMENT_3D('',#299,#244,#245);
#211=AXIS2_PLACEMENT_3D('',#301,#246,#247);
#212=AXIS2_PLACEMENT_3D('',#302,#248,#249);
#213=AXIS2_PLACEMENT_3D('',#304,#250,#251);
#214=AXIS2_PLACEMENT_3D('',#305,#252,#253);
#215=AXIS2_PLACEMENT_3D('',#307,#254,#255);
#216=AXIS2_PLACEMENT_3D('',#308,#256,#257);
#217=AXIS2_PLACEMENT_3D('',#309,#258,#259);
#218=AXIS2_PLACEMENT_3D('',#312,#260,#261);
#219=AXIS2_PLACEMENT_3D('',#313,#262,#263);
#220=AXIS2_PLACEMENT_3D('',#315,#264,#265);
#221=AXIS2_PLACEMENT_3D('',#316,#266,#267);
#222=DIRECTION('',(0.,0.,1.));
#223=DIRECTION('',(1.,0.,0.));
#224=DIRECTION('',(0.,0.,1.));
#225=DIRECTION('',(1.,0.,0.));
#226=DIRECTION('',(0.,0.,1.));
#227=DIRECTION('',(1.,0.,0.));
#228=DIRECTION('',(0.,0.,1.));
#229=DIRECTION('',(1.,0.,0.));
#230=DIRECTION('',(0.,0.,-1.));
#231=DIRECTION('',(-1.,0.,0.));
#232=DIRECTION('',(0.,0.,1.));
#233=DIRECTION('',(-1.,0.,0.));
#234=DIRECTION('',(0.,0.,-1.));
#235=DIRECTION('',(-1.,0.,0.));
#236=DIRECTION('',(0.,0.,-1.));
#237=DIRECTION('',(1.,0.,-4.84185284993663E-17));
#238=DIRECTION('',(0.,0.,1.));
#239=DIRECTION('',(1.,0.,0.));
#240=DIRECTION('',(0.,0.,-1.));
#241=DIRECTION('',(1.,0.,0.));
#242=DIRECTION('',(0.,0.,1.));
#243=DIRECTION('',(-1.,0.,0.));
#244=DIRECTION('',(0.,0.,-1.));
#245=DIRECTION('',(-1.,0.,0.));
#246=DIRECTION('',(0.,0.,-1.));
#247=DIRECTION('',(1.,0.,0.));
#248=DIRECTION('',(0.,0.,-1.));
#249=DIRECTION('',(-1.,0.,0.));
#250=DIRECTION('',(0.,0.,-1.));
#251=DIRECTION('',(1.,0.,0.));
#252=DIRECTION('',(0.,0.,-1.));
#253=DIRECTION('',(1.,0.,0.));
#254=DIRECTION('',(0.,0.,1.));
#255=DIRECTION('',(-1.,0.,-2.73009016095448E-16));
#256=DIRECTION('',(0.,0.,1.));
#257=DIRECTION('',(-1.,0.,0.));
#258=DIRECTION('',(0.,0.,-1.));
#259=DIRECTION('',(-1.,0.,0.));
#260=DIRECTION('',(0.,0.,-1.));
#261=DIRECTION('',(1.,0.,-1.51479325293376E-19));
#262=DIRECTION('',(0.,0.,-1.));
#263=DIRECTION('',(-1.,0.,0.));
#264=DIRECTION('',(0.,0.,-1.));
#265=DIRECTION('',(1.,0.,-5.90700701249114E-15));
#266=DIRECTION('',(0.,0.,-1.));
#267=DIRECTION('',(1.,0.,0.));
#268=CARTESIAN_POINT('',(0.,0.,0.));
#269=CARTESIAN_POINT('',(0.,0.,34.113339952));
#270=CARTESIAN_POINT('',(0.,0.,0.));
#271=CARTESIAN_POINT('',(0.,0.,-16.686660048));
#272=CARTESIAN_POINT('CRP',(-1.5875,0.,-16.686660048));
#273=CARTESIAN_POINT('',(-1.5866687869353,0.,-11.9241600480002));
#274=CARTESIAN_POINT('',(-1.58694585795687,0.,-13.5116600480008));
#275=CARTESIAN_POINT('',(-1.58722292897843,0.,-15.0991600480014));
#276=CARTESIAN_POINT('',(-1.5875,0.,-16.686660048001));
#277=CARTESIAN_POINT('',(-1.05833333333334,0.,-16.6635561323776));
#278=CARTESIAN_POINT('',(-0.529166666666669,0.,-16.6404522167551));
#279=CARTESIAN_POINT('',(-1.4432899320127E-15,0.,-16.6173483011327));
#280=CARTESIAN_POINT('',(0.,0.,-15.0529522167551));
#281=CARTESIAN_POINT('',(0.,0.,-13.4885561323776));
#282=CARTESIAN_POINT('',(0.,0.,-11.924160048));
#283=CARTESIAN_POINT('',(-0.5288895956451,0.,-11.924160048));
#284=CARTESIAN_POINT('',(-1.0577791912902,0.,-11.924160048));
#285=CARTESIAN_POINT('',(-1.5866687869353,0.,-11.924160048));
#286=CARTESIAN_POINT('',(0.,0.,34.113339952));
#287=CARTESIAN_POINT('',(0.,0.,0.));
#288=CARTESIAN_POINT('',(0.,0.,-16.686660048));
#289=CARTESIAN_POINT('',(0.,0.,34.113339952));
#290=CARTESIAN_POINT('',(-2.8702,0.,34.113339952));
#291=CARTESIAN_POINT('',(2.8702,0.,34.113339952));
#292=CARTESIAN_POINT('',(0.,0.,33.808539952));
#293=CARTESIAN_POINT('',(-3.175,0.,33.808539952));
#294=CARTESIAN_POINT('',(0.,0.,33.808539952));
#295=CARTESIAN_POINT('',(0.,0.,0.));
#296=CARTESIAN_POINT('',(3.175,0.,0.));
#297=CARTESIAN_POINT('',(0.,0.,0.));
#298=CARTESIAN_POINT('',(0.,0.,0.));
#299=CARTESIAN_POINT('',(0.,0.,-11.924160048));
#300=CARTESIAN_POINT('',(-1.58750000000001,0.,-11.924160048));
#301=CARTESIAN_POINT('',(1.5866687869353,0.,-11.924160048));
#302=CARTESIAN_POINT('',(0.,0.,-9.00316004800001));
#303=CARTESIAN_POINT('',(-1.58750000000001,0.,-9.00316004800001));
#304=CARTESIAN_POINT('',(0.,0.,0.));
#305=CARTESIAN_POINT('',(0.,0.,0.));
#306=CARTESIAN_POINT('',(3.175,0.,0.));
#307=CARTESIAN_POINT('',(0.,0.,-9.00316004800001));
#308=CARTESIAN_POINT('',(0.,0.,0.));
#309=CARTESIAN_POINT('',(0.,0.,-16.686660048));
#310=CARTESIAN_POINT('',(-1.5875,0.,-16.686660048));
#311=CARTESIAN_POINT('',(-2.8521641331071E-15,0.,-16.6173483011327));
#312=CARTESIAN_POINT('',(0.,0.,-16.6173483011327));
#313=CARTESIAN_POINT('',(0.,0.,-11.924160048));
#314=CARTESIAN_POINT('',(-1.5866687869353,0.,-11.924160048));
#315=CARTESIAN_POINT('',(0.,0.,-16.686660048));
#316=CARTESIAN_POINT('',(0.,0.,-11.924160048));
#317=MECHANICAL_DESIGN_GEOMETRIC_PRESENTATION_REPRESENTATION('',(#165,#166,
#167,#168,#169,#170,#171,#172,#173,#174,#175),#318);
#318=(
GEOMETRIC_REPRESENTATION_CONTEXT(3)
GLOBAL_UNCERTAINTY_ASSIGNED_CONTEXT((#319))
GLOBAL_UNIT_ASSIGNED_CONTEXT((#325,#321,#320))
REPRESENTATION_CONTEXT('S638.125F2S','TOP_LEVEL_ASSEMBLY_PART')
);
#319=UNCERTAINTY_MEASURE_WITH_UNIT(LENGTH_MEASURE(2.E-5),#325,
'DISTANCE_ACCURACY_VALUE','Maximum Tolerance applied to model');
#320=(
NAMED_UNIT(*)
SI_UNIT($,.STERADIAN.)
SOLID_ANGLE_UNIT()
);
#321=(
CONVERSION_BASED_UNIT('DEGREE',#323)
NAMED_UNIT(#322)
PLANE_ANGLE_UNIT()
);
#322=DIMENSIONAL_EXPONENTS(0.,0.,0.,0.,0.,0.,0.);
#323=PLANE_ANGLE_MEASURE_WITH_UNIT(PLANE_ANGLE_MEASURE(0.0174532925),#324);
#324=(
NAMED_UNIT(*)
PLANE_ANGLE_UNIT()
SI_UNIT($,.RADIAN.)
);
#325=(
LENGTH_UNIT()
NAMED_UNIT(*)
SI_UNIT(.MILLI.,.METRE.)
);
ENDSEC;
END-ISO-10303-21;
