ISO-10303-21;
HEADER;
/* Generated by software containing ST-Developer
 * from STEP Tools, Inc. (www.steptools.com) 
 */
/* OPTION: using custom schema-name function */

FILE_DESCRIPTION(
/* description */ (''),
/* implementation_level */ '2;1');

FILE_NAME(
/* name */ 'SMB716030G3B.0Z2_Basic.stp',
/* time_stamp */ '2021-10-21T15:40:21+05:00',
/* author */ (''),
/* organization */ (''),
/* preprocessor_version */ 'ST-DEVELOPER v16.7',
/* originating_system */ 'SIEMENS PLM Software NX 12.0',
/* authorisation */ '');

FILE_SCHEMA (('AUTOMOTIVE_DESIGN { 1 0 10303 214 3 1 1 1 }'));
ENDSEC;

DATA;
#10=CONSTRUCTIVE_GEOMETRY_REPRESENTATION_RELATIONSHIP(
'supplemental geometry','',#34,#11);
#11=CONSTRUCTIVE_GEOMETRY_REPRESENTATION('supplemental geometry',(#198,
#199,#200),#320);
#12=GEOMETRICALLY_BOUNDED_WIREFRAME_SHAPE_REPRESENTATION(
'SMB716030G3B.0Z2_Basic-None',(#35),#320);
#13=PROPERTY_DEFINITION_REPRESENTATION(#17,#15);
#14=PROPERTY_DEFINITION_REPRESENTATION(#18,#16);
#15=REPRESENTATION('',(#19),#320);
#16=REPRESENTATION('',(#20),#320);
#17=PROPERTY_DEFINITION('pmi validation property','',#25);
#18=PROPERTY_DEFINITION('pmi validation property','',#25);
#19=VALUE_REPRESENTATION_ITEM('number of annotations',COUNT_MEASURE(0.));
#20=VALUE_REPRESENTATION_ITEM('number of views',COUNT_MEASURE(0.));
#21=SHAPE_REPRESENTATION_RELATIONSHIP('None',
'relationship between SMB716030G3B.0Z2_Basic-None and SMB716030G3B.0Z2
_Basic-None',#34,#23);
#22=SHAPE_REPRESENTATION_RELATIONSHIP('None',
'relationship between SMB716030G3B.0Z2_Basic-None and SMB716030G3B.0Z2
_Basic-None',#34,#12);
#23=ADVANCED_BREP_SHAPE_REPRESENTATION('SMB716030G3B.0Z2_Basic-None',(#49,
#50),#320);
#24=SHAPE_DEFINITION_REPRESENTATION(#25,#34);
#25=PRODUCT_DEFINITION_SHAPE('','',#26);
#26=PRODUCT_DEFINITION(' ','',#28,#27);
#27=PRODUCT_DEFINITION_CONTEXT('part definition',#33,'design');
#28=PRODUCT_DEFINITION_FORMATION_WITH_SPECIFIED_SOURCE(' ',' ',#30,
 .NOT_KNOWN.);
#29=PRODUCT_RELATED_PRODUCT_CATEGORY('part','',(#30));
#30=PRODUCT('SMB716030G3B.0Z2_Basic','SMB716030G3B.0Z2_Basic',' ',(#31));
#31=PRODUCT_CONTEXT(' ',#33,'mechanical');
#32=APPLICATION_PROTOCOL_DEFINITION('international standard',
'automotive_design',2010,#33);
#33=APPLICATION_CONTEXT(
'core data for automotive mechanical design processes');
#34=SHAPE_REPRESENTATION('SMB716030G3B.0Z2_Basic-None',(#197),#320);
#35=GEOMETRIC_CURVE_SET('None',(#270,#271,#272,#273,#162));
#36=TOROIDAL_SURFACE('',#218,4.425,3.);
#37=CYLINDRICAL_SURFACE('',#211,3.);
#38=CYLINDRICAL_SURFACE('',#216,1.425);
#39=SURFACE_STYLE_USAGE(.BOTH.,#41);
#40=SURFACE_STYLE_USAGE(.BOTH.,#42);
#41=SURFACE_SIDE_STYLE('',(#43));
#42=SURFACE_SIDE_STYLE('',(#44));
#43=SURFACE_STYLE_FILL_AREA(#45);
#44=SURFACE_STYLE_FILL_AREA(#46);
#45=FILL_AREA_STYLE('',(#47));
#46=FILL_AREA_STYLE('',(#48));
#47=FILL_AREA_STYLE_COLOUR('',#195);
#48=FILL_AREA_STYLE_COLOUR('',#196);
#49=MANIFOLD_SOLID_BREP('CUT',#51);
#50=MANIFOLD_SOLID_BREP('NOCUT',#52);
#51=CLOSED_SHELL('',(#74,#75,#76));
#52=CLOSED_SHELL('',(#77,#78,#79,#80,#81,#82,#83,#84));
#53=PLANE('',#205);
#54=PLANE('',#207);
#55=PLANE('',#220);
#56=CONICAL_SURFACE('',#204,1.5,0.00499999999997936);
#57=CONICAL_SURFACE('',#209,3.,45.0000000000001);
#58=CONICAL_SURFACE('',#214,1.49986910030577,9.99999999999974);
#59=CONICAL_SURFACE('',#219,1.52722252113279,15.);
#60=FACE_BOUND('',#91,.T.);
#61=FACE_BOUND('',#92,.T.);
#62=FACE_BOUND('',#95,.T.);
#63=FACE_BOUND('',#96,.T.);
#64=FACE_BOUND('',#97,.T.);
#65=FACE_BOUND('',#98,.T.);
#66=FACE_BOUND('',#99,.T.);
#67=FACE_BOUND('',#100,.T.);
#68=FACE_BOUND('',#101,.T.);
#69=FACE_BOUND('',#102,.T.);
#70=FACE_BOUND('',#103,.T.);
#71=FACE_BOUND('',#104,.T.);
#72=FACE_BOUND('',#105,.T.);
#73=FACE_BOUND('',#106,.T.);
#74=ADVANCED_FACE('',(#86),#85,.T.);
#75=ADVANCED_FACE('',(#60,#61),#56,.T.);
#76=ADVANCED_FACE('',(#87),#53,.F.);
#77=ADVANCED_FACE('',(#88),#54,.T.);
#78=ADVANCED_FACE('',(#62,#63),#57,.T.);
#79=ADVANCED_FACE('',(#64,#65),#37,.T.);
#80=ADVANCED_FACE('',(#66,#67),#58,.T.);
#81=ADVANCED_FACE('',(#68,#69),#38,.T.);
#82=ADVANCED_FACE('',(#70,#71),#36,.F.);
#83=ADVANCED_FACE('',(#72,#73),#59,.T.);
#84=ADVANCED_FACE('',(#89),#55,.T.);
#85=SPHERICAL_SURFACE('',#202,1.5);
#86=FACE_OUTER_BOUND('',#90,.T.);
#87=FACE_OUTER_BOUND('',#93,.T.);
#88=FACE_OUTER_BOUND('',#94,.T.);
#89=FACE_OUTER_BOUND('',#107,.T.);
#90=EDGE_LOOP('',(#108));
#91=EDGE_LOOP('',(#109));
#92=EDGE_LOOP('',(#110));
#93=EDGE_LOOP('',(#111));
#94=EDGE_LOOP('',(#112));
#95=EDGE_LOOP('',(#113));
#96=EDGE_LOOP('',(#114));
#97=EDGE_LOOP('',(#115));
#98=EDGE_LOOP('',(#116));
#99=EDGE_LOOP('',(#117));
#100=EDGE_LOOP('',(#118));
#101=EDGE_LOOP('',(#119));
#102=EDGE_LOOP('',(#120));
#103=EDGE_LOOP('',(#121));
#104=EDGE_LOOP('',(#122));
#105=EDGE_LOOP('',(#123));
#106=EDGE_LOOP('',(#124));
#107=EDGE_LOOP('',(#125));
#108=ORIENTED_EDGE('',*,*,#135,.T.);
#109=ORIENTED_EDGE('',*,*,#136,.F.);
#110=ORIENTED_EDGE('',*,*,#135,.F.);
#111=ORIENTED_EDGE('',*,*,#136,.T.);
#112=ORIENTED_EDGE('',*,*,#137,.F.);
#113=ORIENTED_EDGE('',*,*,#137,.T.);
#114=ORIENTED_EDGE('',*,*,#138,.F.);
#115=ORIENTED_EDGE('',*,*,#138,.T.);
#116=ORIENTED_EDGE('',*,*,#139,.F.);
#117=ORIENTED_EDGE('',*,*,#140,.T.);
#118=ORIENTED_EDGE('',*,*,#141,.F.);
#119=ORIENTED_EDGE('',*,*,#142,.T.);
#120=ORIENTED_EDGE('',*,*,#140,.F.);
#121=ORIENTED_EDGE('',*,*,#143,.T.);
#122=ORIENTED_EDGE('',*,*,#142,.F.);
#123=ORIENTED_EDGE('',*,*,#139,.T.);
#124=ORIENTED_EDGE('',*,*,#143,.F.);
#125=ORIENTED_EDGE('',*,*,#141,.T.);
#126=VERTEX_POINT('',#291);
#127=VERTEX_POINT('',#294);
#128=VERTEX_POINT('',#298);
#129=VERTEX_POINT('',#301);
#130=VERTEX_POINT('',#304);
#131=VERTEX_POINT('',#307);
#132=VERTEX_POINT('',#309);
#133=VERTEX_POINT('',#312);
#134=VERTEX_POINT('',#315);
#135=EDGE_CURVE('',#126,#126,#144,.T.);
#136=EDGE_CURVE('',#127,#127,#145,.T.);
#137=EDGE_CURVE('',#128,#128,#146,.T.);
#138=EDGE_CURVE('',#129,#129,#147,.T.);
#139=EDGE_CURVE('',#130,#130,#148,.T.);
#140=EDGE_CURVE('',#131,#131,#149,.T.);
#141=EDGE_CURVE('',#132,#132,#150,.T.);
#142=EDGE_CURVE('',#133,#133,#151,.T.);
#143=EDGE_CURVE('',#134,#134,#152,.T.);
#144=CIRCLE('',#201,1.5);
#145=CIRCLE('',#203,1.49986910030577);
#146=CIRCLE('',#206,2.5);
#147=CIRCLE('',#208,3.);
#148=CIRCLE('',#210,3.);
#149=CIRCLE('',#212,1.425);
#150=CIRCLE('',#213,1.49986910030577);
#151=CIRCLE('',#215,1.425);
#152=CIRCLE('',#217,1.52722252113279);
#153=CURVE_STYLE('',#158,POSITIVE_LENGTH_MEASURE(0.18),#157);
#154=CURVE_STYLE('',#159,POSITIVE_LENGTH_MEASURE(0.18),#193);
#155=CURVE_STYLE('',#160,POSITIVE_LENGTH_MEASURE(0.18),#193);
#156=CURVE_STYLE('',#161,POSITIVE_LENGTH_MEASURE(0.18),#193);
#157=DRAUGHTING_PRE_DEFINED_COLOUR('blue');
#158=DRAUGHTING_PRE_DEFINED_CURVE_FONT('continuous');
#159=DRAUGHTING_PRE_DEFINED_CURVE_FONT('continuous');
#160=DRAUGHTING_PRE_DEFINED_CURVE_FONT('continuous');
#161=DRAUGHTING_PRE_DEFINED_CURVE_FONT('continuous');
#162=TRIMMED_CURVE('CUTTING PART LINE',#163,(PARAMETER_VALUE(0.)),(
PARAMETER_VALUE(1.)),.T.,.PARAMETER.);
#163=(
BOUNDED_CURVE()
B_SPLINE_CURVE(3,(#274,#275,#276,#277,#278,#279,#280,#281,#282,#283,#284,
#285,#286),.UNSPECIFIED.,.T.,.F.)
B_SPLINE_CURVE_WITH_KNOTS((4,3,3,3,4),(0.,0.179510362560912,0.46148457961066,
0.820505303356238,1.),.UNSPECIFIED.)
CURVE()
GEOMETRIC_REPRESENTATION_ITEM()
RATIONAL_B_SPLINE_CURVE((1.,1.,1.,1.,0.804737854124365,0.804737854124365,
1.,1.,1.,1.,1.,1.,1.))
REPRESENTATION_ITEM('CUTTING PART LINE')
);
#164=PRESENTATION_LAYER_ASSIGNMENT('1','Layer 1',(#270,#271,#272,#273,#162,
#198,#199,#200,#49,#50));
#165=STYLED_ITEM('',(#175),#270);
#166=STYLED_ITEM('',(#176),#271);
#167=STYLED_ITEM('',(#177),#272);
#168=STYLED_ITEM('',(#178),#273);
#169=STYLED_ITEM('',(#179),#162);
#170=STYLED_ITEM('',(#180),#198);
#171=STYLED_ITEM('',(#181),#199);
#172=STYLED_ITEM('',(#182),#200);
#173=STYLED_ITEM('',(#183),#49);
#174=STYLED_ITEM('',(#184),#50);
#175=PRESENTATION_STYLE_ASSIGNMENT((#185));
#176=PRESENTATION_STYLE_ASSIGNMENT((#186));
#177=PRESENTATION_STYLE_ASSIGNMENT((#187));
#178=PRESENTATION_STYLE_ASSIGNMENT((#188));
#179=PRESENTATION_STYLE_ASSIGNMENT((#153));
#180=PRESENTATION_STYLE_ASSIGNMENT((#154));
#181=PRESENTATION_STYLE_ASSIGNMENT((#155));
#182=PRESENTATION_STYLE_ASSIGNMENT((#156));
#183=PRESENTATION_STYLE_ASSIGNMENT((#39));
#184=PRESENTATION_STYLE_ASSIGNMENT((#40));
#185=POINT_STYLE('',#189,POSITIVE_LENGTH_MEASURE(3.),#193);
#186=POINT_STYLE('',#190,POSITIVE_LENGTH_MEASURE(3.),#193);
#187=POINT_STYLE('',#191,POSITIVE_LENGTH_MEASURE(3.),#193);
#188=POINT_STYLE('',#192,POSITIVE_LENGTH_MEASURE(3.),#194);
#189=PRE_DEFINED_POINT_MARKER_SYMBOL('plus');
#190=PRE_DEFINED_POINT_MARKER_SYMBOL('plus');
#191=PRE_DEFINED_POINT_MARKER_SYMBOL('plus');
#192=PRE_DEFINED_POINT_MARKER_SYMBOL('plus');
#193=COLOUR_RGB('Pale Maroon',0.811749446860456,0.603921568627451,0.611749446860456);
#194=COLOUR_RGB('Medium Royal',0.2,0.4,0.8);
#195=COLOUR_RGB('Light Gray',0.8,0.8,0.8);
#196=COLOUR_RGB('Medium Gray',0.490196078431373,0.490196078431373,0.490196078431373);
#197=AXIS2_PLACEMENT_3D('',#269,#221,#222);
#198=AXIS2_PLACEMENT_3D('PCS',#287,#223,#224);
#199=AXIS2_PLACEMENT_3D('MCS',#288,#225,#226);
#200=AXIS2_PLACEMENT_3D('CIP',#289,#227,#228);
#201=AXIS2_PLACEMENT_3D('',#290,#229,#230);
#202=AXIS2_PLACEMENT_3D('',#292,#231,#232);
#203=AXIS2_PLACEMENT_3D('',#293,#233,#234);
#204=AXIS2_PLACEMENT_3D('',#295,#235,#236);
#205=AXIS2_PLACEMENT_3D('',#296,#237,#238);
#206=AXIS2_PLACEMENT_3D('',#297,#239,#240);
#207=AXIS2_PLACEMENT_3D('',#299,#241,#242);
#208=AXIS2_PLACEMENT_3D('',#300,#243,#244);
#209=AXIS2_PLACEMENT_3D('',#302,#245,#246);
#210=AXIS2_PLACEMENT_3D('',#303,#247,#248);
#211=AXIS2_PLACEMENT_3D('',#305,#249,#250);
#212=AXIS2_PLACEMENT_3D('',#306,#251,#252);
#213=AXIS2_PLACEMENT_3D('',#308,#253,#254);
#214=AXIS2_PLACEMENT_3D('',#310,#255,#256);
#215=AXIS2_PLACEMENT_3D('',#311,#257,#258);
#216=AXIS2_PLACEMENT_3D('',#313,#259,#260);
#217=AXIS2_PLACEMENT_3D('',#314,#261,#262);
#218=AXIS2_PLACEMENT_3D('',#316,#263,#264);
#219=AXIS2_PLACEMENT_3D('',#317,#265,#266);
#220=AXIS2_PLACEMENT_3D('',#318,#267,#268);
#221=DIRECTION('',(0.,0.,1.));
#222=DIRECTION('',(1.,0.,0.));
#223=DIRECTION('',(0.,0.,1.));
#224=DIRECTION('',(1.,0.,0.));
#225=DIRECTION('',(0.,0.,1.));
#226=DIRECTION('',(1.,0.,0.));
#227=DIRECTION('',(0.,0.,1.));
#228=DIRECTION('',(1.,0.,0.));
#229=DIRECTION('',(0.,0.,-1.));
#230=DIRECTION('',(-1.,0.,0.));
#231=DIRECTION('',(-3.69778549322349E-32,0.,-1.));
#232=DIRECTION('',(1.,0.,0.));
#233=DIRECTION('',(0.,0.,1.));
#234=DIRECTION('',(-1.,0.,0.));
#235=DIRECTION('',(0.,0.,-1.));
#236=DIRECTION('',(1.,0.,-5.46449987009071E-14));
#237=DIRECTION('',(0.,0.,-1.));
#238=DIRECTION('',(1.,0.,0.));
#239=DIRECTION('',(0.,0.,-1.));
#240=DIRECTION('',(-1.,0.,0.));
#241=DIRECTION('',(0.,0.,1.));
#242=DIRECTION('',(-1.,0.,0.));
#243=DIRECTION('',(0.,0.,-1.));
#244=DIRECTION('',(-1.,0.,0.));
#245=DIRECTION('',(0.,0.,-1.));
#246=DIRECTION('',(1.,0.,-4.49679066554305E-17));
#247=DIRECTION('',(0.,0.,-1.));
#248=DIRECTION('',(1.,0.,0.));
#249=DIRECTION('',(0.,0.,-1.));
#250=DIRECTION('',(1.,0.,0.));
#251=DIRECTION('',(0.,0.,-1.));
#252=DIRECTION('',(-1.,0.,0.));
#253=DIRECTION('',(0.,0.,-1.));
#254=DIRECTION('',(-1.,0.,0.));
#255=DIRECTION('',(0.,0.,-1.));
#256=DIRECTION('',(1.,0.,-1.56082029488106E-16));
#257=DIRECTION('',(0.,0.,-1.));
#258=DIRECTION('',(-1.,0.,0.));
#259=DIRECTION('',(0.,0.,-1.));
#260=DIRECTION('',(1.,0.,0.));
#261=DIRECTION('',(0.,0.,-1.));
#262=DIRECTION('',(-1.,0.,0.));
#263=DIRECTION('',(0.,0.,-1.));
#264=DIRECTION('',(1.,0.,0.));
#265=DIRECTION('',(0.,0.,1.));
#266=DIRECTION('',(-1.,0.,6.11551590691137E-17));
#267=DIRECTION('',(0.,0.,-1.));
#268=DIRECTION('',(1.,0.,0.));
#269=CARTESIAN_POINT('',(0.,0.,0.));
#270=CARTESIAN_POINT('',(0.,0.,31.727062485));
#271=CARTESIAN_POINT('',(0.,0.,0.));
#272=CARTESIAN_POINT('',(0.,0.,-18.272937515));
#273=CARTESIAN_POINT('CRP',(-1.5,0.,-18.2729));
#274=CARTESIAN_POINT('',(-1.49986910030577,0.,-15.2729375150038));
#275=CARTESIAN_POINT('',(-1.49991273353718,0.,-15.7729375150026));
#276=CARTESIAN_POINT('',(-1.49995636676859,0.,-16.2729375150015));
#277=CARTESIAN_POINT('',(-1.5,0.,-16.7729375150002));
#278=CARTESIAN_POINT('',(-1.50007667926528,0.,-17.6516171680946));
#279=CARTESIAN_POINT('',(-0.878679656440358,0.,-18.272937515));
#280=CARTESIAN_POINT('',(-9.18485099360515E-17,0.,-18.272937515));
#281=CARTESIAN_POINT('',(0.,0.,-17.272937515));
#282=CARTESIAN_POINT('',(0.,0.,-16.272937515));
#283=CARTESIAN_POINT('',(0.,0.,-15.272937515));
#284=CARTESIAN_POINT('',(-0.49995636676859,0.,-15.272937515));
#285=CARTESIAN_POINT('',(-0.99991273353718,0.,-15.272937515));
#286=CARTESIAN_POINT('',(-1.49986910030577,0.,-15.272937515));
#287=CARTESIAN_POINT('',(0.,0.,31.727062485));
#288=CARTESIAN_POINT('',(0.,0.,0.));
#289=CARTESIAN_POINT('',(0.,0.,-18.272937515));
#290=CARTESIAN_POINT('',(0.,0.,-16.772937515));
#291=CARTESIAN_POINT('',(-1.5,0.,-16.772937515));
#292=CARTESIAN_POINT('',(0.,0.,-16.772937515));
#293=CARTESIAN_POINT('',(0.,0.,-15.272937515));
#294=CARTESIAN_POINT('',(-1.49986910030577,0.,-15.272937515));
#295=CARTESIAN_POINT('',(0.,0.,-16.772937515));
#296=CARTESIAN_POINT('',(0.,0.,-15.272937515));
#297=CARTESIAN_POINT('',(0.,0.,31.727062485));
#298=CARTESIAN_POINT('',(-2.5,0.,31.727062485));
#299=CARTESIAN_POINT('',(2.5,0.,31.727062485));
#300=CARTESIAN_POINT('',(0.,0.,31.227062485));
#301=CARTESIAN_POINT('',(-3.,0.,31.227062485));
#302=CARTESIAN_POINT('',(0.,0.,31.227062485));
#303=CARTESIAN_POINT('',(0.,0.,0.));
#304=CARTESIAN_POINT('',(3.,0.,0.));
#305=CARTESIAN_POINT('',(0.,0.,0.));
#306=CARTESIAN_POINT('',(0.,0.,-14.8483337475847));
#307=CARTESIAN_POINT('',(-1.425,0.,-14.8483337475847));
#308=CARTESIAN_POINT('',(0.,0.,-15.272937515));
#309=CARTESIAN_POINT('',(-1.49986910030577,0.,-15.272937515));
#310=CARTESIAN_POINT('',(0.,0.,-15.272937515));
#311=CARTESIAN_POINT('',(0.,0.,-6.272937515));
#312=CARTESIAN_POINT('',(-1.425,0.,-6.272937515));
#313=CARTESIAN_POINT('',(0.,0.,0.));
#314=CARTESIAN_POINT('',(0.,0.,-5.49648037969243));
#315=CARTESIAN_POINT('',(-1.52722252113279,0.,-5.49648037969243));
#316=CARTESIAN_POINT('',(0.,0.,-6.27293751499999));
#317=CARTESIAN_POINT('',(0.,0.,-5.49648037969243));
#318=CARTESIAN_POINT('',(0.,0.,-15.272937515));
#319=MECHANICAL_DESIGN_GEOMETRIC_PRESENTATION_REPRESENTATION('',(#165,#166,
#167,#168,#169,#170,#171,#172,#173,#174),#320);
#320=(
GEOMETRIC_REPRESENTATION_CONTEXT(3)
GLOBAL_UNCERTAINTY_ASSIGNED_CONTEXT((#321))
GLOBAL_UNIT_ASSIGNED_CONTEXT((#327,#323,#322))
REPRESENTATION_CONTEXT('SMB716030G3B','TOP_LEVEL_ASSEMBLY_PART')
);
#321=UNCERTAINTY_MEASURE_WITH_UNIT(LENGTH_MEASURE(2.E-5),#327,
'DISTANCE_ACCURACY_VALUE','Maximum Tolerance applied to model');
#322=(
NAMED_UNIT(*)
SI_UNIT($,.STERADIAN.)
SOLID_ANGLE_UNIT()
);
#323=(
CONVERSION_BASED_UNIT('DEGREE',#325)
NAMED_UNIT(#324)
PLANE_ANGLE_UNIT()
);
#324=DIMENSIONAL_EXPONENTS(0.,0.,0.,0.,0.,0.,0.);
#325=PLANE_ANGLE_MEASURE_WITH_UNIT(PLANE_ANGLE_MEASURE(0.0174532925),#326);
#326=(
NAMED_UNIT(*)
PLANE_ANGLE_UNIT()
SI_UNIT($,.RADIAN.)
);
#327=(
LENGTH_UNIT()
NAMED_UNIT(*)
SI_UNIT(.MILLI.,.METRE.)
);
ENDSEC;
END-ISO-10303-21;
