ISO-10303-21;
HEADER;
/* Generated by software containing ST-Developer
 * from STEP Tools, Inc. (www.steptools.com) 
 */
/* OPTION: using custom schema-name function */

FILE_DESCRIPTION(
/* description */ (''),
/* implementation_level */ '2;1');

FILE_NAME(
/* name */ 'SMB416025G5B.0Z2_Basic.stp',
/* time_stamp */ '2021-10-20T23:41:20+05:00',
/* author */ (''),
/* organization */ (''),
/* preprocessor_version */ 'ST-DEVELOPER v16.7',
/* originating_system */ 'SIEMENS PLM Software NX 12.0',
/* authorisation */ '');

FILE_SCHEMA (('AUTOMOTIVE_DESIGN { 1 0 10303 214 3 1 1 1 }'));
ENDSEC;

DATA;
#10=CONSTRUCTIVE_GEOMETRY_REPRESENTATION_RELATIONSHIP(
'supplemental geometry','',#34,#11);
#11=CONSTRUCTIVE_GEOMETRY_REPRESENTATION('supplemental geometry',(#199,
#200,#201),#321);
#12=GEOMETRICALLY_BOUNDED_WIREFRAME_SHAPE_REPRESENTATION(
'inpu4054F599zzfh-None',(#35),#321);
#13=PROPERTY_DEFINITION_REPRESENTATION(#17,#15);
#14=PROPERTY_DEFINITION_REPRESENTATION(#18,#16);
#15=REPRESENTATION('',(#19),#321);
#16=REPRESENTATION('',(#20),#321);
#17=PROPERTY_DEFINITION('pmi validation property','',#25);
#18=PROPERTY_DEFINITION('pmi validation property','',#25);
#19=VALUE_REPRESENTATION_ITEM('number of annotations',COUNT_MEASURE(0.));
#20=VALUE_REPRESENTATION_ITEM('number of views',COUNT_MEASURE(0.));
#21=SHAPE_REPRESENTATION_RELATIONSHIP('None',
'relationship between inpu4054F599zzfh-None and inpu4054F599zzfh-None',
#34,#23);
#22=SHAPE_REPRESENTATION_RELATIONSHIP('None',
'relationship between inpu4054F599zzfh-None and inpu4054F599zzfh-None',
#34,#12);
#23=ADVANCED_BREP_SHAPE_REPRESENTATION('inpu4054F599zzfh-None',(#47,#48),
#321);
#24=SHAPE_DEFINITION_REPRESENTATION(#25,#34);
#25=PRODUCT_DEFINITION_SHAPE('','',#26);
#26=PRODUCT_DEFINITION(' ','',#28,#27);
#27=PRODUCT_DEFINITION_CONTEXT('part definition',#33,'design');
#28=PRODUCT_DEFINITION_FORMATION_WITH_SPECIFIED_SOURCE(' ',' ',#30,
 .NOT_KNOWN.);
#29=PRODUCT_RELATED_PRODUCT_CATEGORY('part','',(#30));
#30=PRODUCT('inpu4054F599zzfh','inpu4054F599zzfh',' ',(#31));
#31=PRODUCT_CONTEXT(' ',#33,'mechanical');
#32=APPLICATION_PROTOCOL_DEFINITION('international standard',
'automotive_design',2010,#33);
#33=APPLICATION_CONTEXT(
'core data for automotive mechanical design processes');
#34=SHAPE_REPRESENTATION('inpu4054F599zzfh-None',(#198),#321);
#35=GEOMETRIC_CURVE_SET('None',(#271,#272,#273,#274,#162));
#36=SPHERICAL_SURFACE('',#221,1.25);
#37=SURFACE_STYLE_USAGE(.BOTH.,#39);
#38=SURFACE_STYLE_USAGE(.BOTH.,#40);
#39=SURFACE_SIDE_STYLE('',(#41));
#40=SURFACE_SIDE_STYLE('',(#42));
#41=SURFACE_STYLE_FILL_AREA(#43);
#42=SURFACE_STYLE_FILL_AREA(#44);
#43=FILL_AREA_STYLE('',(#45));
#44=FILL_AREA_STYLE('',(#46));
#45=FILL_AREA_STYLE_COLOUR('',#196);
#46=FILL_AREA_STYLE_COLOUR('',#197);
#47=MANIFOLD_SOLID_BREP('NOCUT',#49);
#48=MANIFOLD_SOLID_BREP('CUT',#50);
#49=CLOSED_SHELL('',(#72,#73,#74,#75,#76,#77,#78,#79));
#50=CLOSED_SHELL('',(#80,#81,#82));
#51=TOROIDAL_SURFACE('',#214,4.2,3.);
#52=CYLINDRICAL_SURFACE('',#207,3.);
#53=CYLINDRICAL_SURFACE('',#212,1.2);
#54=CONICAL_SURFACE('',#205,3.,45.);
#55=CONICAL_SURFACE('',#210,1.24989091692147,10.0000000000003);
#56=CONICAL_SURFACE('',#215,1.30222252113279,15.);
#57=CONICAL_SURFACE('',#220,1.25,0.00500000000002076);
#58=FACE_BOUND('',#91,.T.);
#59=FACE_BOUND('',#92,.T.);
#60=FACE_BOUND('',#93,.T.);
#61=FACE_BOUND('',#94,.T.);
#62=FACE_BOUND('',#95,.T.);
#63=FACE_BOUND('',#96,.T.);
#64=FACE_BOUND('',#97,.T.);
#65=FACE_BOUND('',#98,.T.);
#66=FACE_BOUND('',#99,.T.);
#67=FACE_BOUND('',#100,.T.);
#68=FACE_BOUND('',#101,.T.);
#69=FACE_BOUND('',#102,.T.);
#70=FACE_BOUND('',#105,.T.);
#71=FACE_BOUND('',#106,.T.);
#72=ADVANCED_FACE('',(#86),#83,.T.);
#73=ADVANCED_FACE('',(#58,#59),#54,.T.);
#74=ADVANCED_FACE('',(#60,#61),#52,.T.);
#75=ADVANCED_FACE('',(#62,#63),#55,.T.);
#76=ADVANCED_FACE('',(#64,#65),#53,.T.);
#77=ADVANCED_FACE('',(#66,#67),#51,.F.);
#78=ADVANCED_FACE('',(#68,#69),#56,.T.);
#79=ADVANCED_FACE('',(#87),#84,.T.);
#80=ADVANCED_FACE('',(#88),#85,.F.);
#81=ADVANCED_FACE('',(#70,#71),#57,.T.);
#82=ADVANCED_FACE('',(#89),#36,.T.);
#83=PLANE('',#203);
#84=PLANE('',#216);
#85=PLANE('',#218);
#86=FACE_OUTER_BOUND('',#90,.T.);
#87=FACE_OUTER_BOUND('',#103,.T.);
#88=FACE_OUTER_BOUND('',#104,.T.);
#89=FACE_OUTER_BOUND('',#107,.T.);
#90=EDGE_LOOP('',(#108));
#91=EDGE_LOOP('',(#109));
#92=EDGE_LOOP('',(#110));
#93=EDGE_LOOP('',(#111));
#94=EDGE_LOOP('',(#112));
#95=EDGE_LOOP('',(#113));
#96=EDGE_LOOP('',(#114));
#97=EDGE_LOOP('',(#115));
#98=EDGE_LOOP('',(#116));
#99=EDGE_LOOP('',(#117));
#100=EDGE_LOOP('',(#118));
#101=EDGE_LOOP('',(#119));
#102=EDGE_LOOP('',(#120));
#103=EDGE_LOOP('',(#121));
#104=EDGE_LOOP('',(#122));
#105=EDGE_LOOP('',(#123));
#106=EDGE_LOOP('',(#124));
#107=EDGE_LOOP('',(#125));
#108=ORIENTED_EDGE('',*,*,#135,.F.);
#109=ORIENTED_EDGE('',*,*,#135,.T.);
#110=ORIENTED_EDGE('',*,*,#136,.F.);
#111=ORIENTED_EDGE('',*,*,#136,.T.);
#112=ORIENTED_EDGE('',*,*,#137,.F.);
#113=ORIENTED_EDGE('',*,*,#138,.T.);
#114=ORIENTED_EDGE('',*,*,#139,.F.);
#115=ORIENTED_EDGE('',*,*,#140,.T.);
#116=ORIENTED_EDGE('',*,*,#138,.F.);
#117=ORIENTED_EDGE('',*,*,#141,.T.);
#118=ORIENTED_EDGE('',*,*,#140,.F.);
#119=ORIENTED_EDGE('',*,*,#137,.T.);
#120=ORIENTED_EDGE('',*,*,#141,.F.);
#121=ORIENTED_EDGE('',*,*,#139,.T.);
#122=ORIENTED_EDGE('',*,*,#142,.T.);
#123=ORIENTED_EDGE('',*,*,#142,.F.);
#124=ORIENTED_EDGE('',*,*,#143,.F.);
#125=ORIENTED_EDGE('',*,*,#143,.T.);
#126=VERTEX_POINT('',#292);
#127=VERTEX_POINT('',#295);
#128=VERTEX_POINT('',#298);
#129=VERTEX_POINT('',#301);
#130=VERTEX_POINT('',#303);
#131=VERTEX_POINT('',#306);
#132=VERTEX_POINT('',#309);
#133=VERTEX_POINT('',#314);
#134=VERTEX_POINT('',#317);
#135=EDGE_CURVE('',#126,#126,#144,.T.);
#136=EDGE_CURVE('',#127,#127,#145,.T.);
#137=EDGE_CURVE('',#128,#128,#146,.T.);
#138=EDGE_CURVE('',#129,#129,#147,.T.);
#139=EDGE_CURVE('',#130,#130,#148,.T.);
#140=EDGE_CURVE('',#131,#131,#149,.T.);
#141=EDGE_CURVE('',#132,#132,#150,.T.);
#142=EDGE_CURVE('',#133,#133,#151,.T.);
#143=EDGE_CURVE('',#134,#134,#152,.T.);
#144=CIRCLE('',#202,2.5);
#145=CIRCLE('',#204,3.);
#146=CIRCLE('',#206,3.);
#147=CIRCLE('',#208,1.2);
#148=CIRCLE('',#209,1.24989091692147);
#149=CIRCLE('',#211,1.2);
#150=CIRCLE('',#213,1.30222252113279);
#151=CIRCLE('',#217,1.24989091692147);
#152=CIRCLE('',#219,1.25);
#153=CURVE_STYLE('',#158,POSITIVE_LENGTH_MEASURE(0.18),#157);
#154=CURVE_STYLE('',#159,POSITIVE_LENGTH_MEASURE(0.18),#194);
#155=CURVE_STYLE('',#160,POSITIVE_LENGTH_MEASURE(0.18),#194);
#156=CURVE_STYLE('',#161,POSITIVE_LENGTH_MEASURE(0.18),#194);
#157=DRAUGHTING_PRE_DEFINED_COLOUR('blue');
#158=DRAUGHTING_PRE_DEFINED_CURVE_FONT('continuous');
#159=DRAUGHTING_PRE_DEFINED_CURVE_FONT('continuous');
#160=DRAUGHTING_PRE_DEFINED_CURVE_FONT('continuous');
#161=DRAUGHTING_PRE_DEFINED_CURVE_FONT('continuous');
#162=TRIMMED_CURVE('CUTTING PART LINE',#163,(PARAMETER_VALUE(0.)),(
PARAMETER_VALUE(1.)),.T.,.PARAMETER.);
#163=(
BOUNDED_CURVE()
B_SPLINE_CURVE(3,(#275,#276,#277,#278,#279,#280,#281,#282,#283,#284,#285,
#286,#287),.UNSPECIFIED.,.T.,.F.)
B_SPLINE_CURVE_WITH_KNOTS((4,3,3,3,4),(0.,0.17951036255631,0.461484579607713,
0.820505303356054,1.),.UNSPECIFIED.)
CURVE()
GEOMETRIC_REPRESENTATION_ITEM()
RATIONAL_B_SPLINE_CURVE((1.,1.,1.,1.,0.804737854124365,0.804737854124365,
1.,1.,1.,1.,1.,1.,1.))
REPRESENTATION_ITEM('CUTTING PART LINE')
);
#164=PRESENTATION_LAYER_ASSIGNMENT('1','Layer 1',(#271,#272,#273,#274,#162,
#199,#200,#201,#47));
#165=PRESENTATION_LAYER_ASSIGNMENT('3','Layer 3',(#48));
#166=STYLED_ITEM('',(#176),#271);
#167=STYLED_ITEM('',(#177),#272);
#168=STYLED_ITEM('',(#178),#273);
#169=STYLED_ITEM('',(#179),#274);
#170=STYLED_ITEM('',(#180),#162);
#171=STYLED_ITEM('',(#181),#199);
#172=STYLED_ITEM('',(#182),#200);
#173=STYLED_ITEM('',(#183),#201);
#174=STYLED_ITEM('',(#184),#47);
#175=STYLED_ITEM('',(#185),#48);
#176=PRESENTATION_STYLE_ASSIGNMENT((#186));
#177=PRESENTATION_STYLE_ASSIGNMENT((#187));
#178=PRESENTATION_STYLE_ASSIGNMENT((#188));
#179=PRESENTATION_STYLE_ASSIGNMENT((#189));
#180=PRESENTATION_STYLE_ASSIGNMENT((#153));
#181=PRESENTATION_STYLE_ASSIGNMENT((#154));
#182=PRESENTATION_STYLE_ASSIGNMENT((#155));
#183=PRESENTATION_STYLE_ASSIGNMENT((#156));
#184=PRESENTATION_STYLE_ASSIGNMENT((#37));
#185=PRESENTATION_STYLE_ASSIGNMENT((#38));
#186=POINT_STYLE('',#190,POSITIVE_LENGTH_MEASURE(3.),#194);
#187=POINT_STYLE('',#191,POSITIVE_LENGTH_MEASURE(3.),#194);
#188=POINT_STYLE('',#192,POSITIVE_LENGTH_MEASURE(3.),#194);
#189=POINT_STYLE('',#193,POSITIVE_LENGTH_MEASURE(3.),#195);
#190=PRE_DEFINED_POINT_MARKER_SYMBOL('plus');
#191=PRE_DEFINED_POINT_MARKER_SYMBOL('plus');
#192=PRE_DEFINED_POINT_MARKER_SYMBOL('plus');
#193=PRE_DEFINED_POINT_MARKER_SYMBOL('plus');
#194=COLOUR_RGB('Pale Maroon',0.811749446860456,0.603921568627451,0.611749446860456);
#195=COLOUR_RGB('Medium Royal',0.2,0.4,0.8);
#196=COLOUR_RGB('Medium Gray',0.490196078431373,0.490196078431373,0.490196078431373);
#197=COLOUR_RGB('Light Gray',0.8,0.8,0.8);
#198=AXIS2_PLACEMENT_3D('',#270,#222,#223);
#199=AXIS2_PLACEMENT_3D('PCS',#288,#224,#225);
#200=AXIS2_PLACEMENT_3D('MCS',#289,#226,#227);
#201=AXIS2_PLACEMENT_3D('CIP',#290,#228,#229);
#202=AXIS2_PLACEMENT_3D('',#291,#230,#231);
#203=AXIS2_PLACEMENT_3D('',#293,#232,#233);
#204=AXIS2_PLACEMENT_3D('',#294,#234,#235);
#205=AXIS2_PLACEMENT_3D('',#296,#236,#237);
#206=AXIS2_PLACEMENT_3D('',#297,#238,#239);
#207=AXIS2_PLACEMENT_3D('',#299,#240,#241);
#208=AXIS2_PLACEMENT_3D('',#300,#242,#243);
#209=AXIS2_PLACEMENT_3D('',#302,#244,#245);
#210=AXIS2_PLACEMENT_3D('',#304,#246,#247);
#211=AXIS2_PLACEMENT_3D('',#305,#248,#249);
#212=AXIS2_PLACEMENT_3D('',#307,#250,#251);
#213=AXIS2_PLACEMENT_3D('',#308,#252,#253);
#214=AXIS2_PLACEMENT_3D('',#310,#254,#255);
#215=AXIS2_PLACEMENT_3D('',#311,#256,#257);
#216=AXIS2_PLACEMENT_3D('',#312,#258,#259);
#217=AXIS2_PLACEMENT_3D('',#313,#260,#261);
#218=AXIS2_PLACEMENT_3D('',#315,#262,#263);
#219=AXIS2_PLACEMENT_3D('',#316,#264,#265);
#220=AXIS2_PLACEMENT_3D('',#318,#266,#267);
#221=AXIS2_PLACEMENT_3D('',#319,#268,#269);
#222=DIRECTION('',(0.,0.,1.));
#223=DIRECTION('',(1.,0.,0.));
#224=DIRECTION('',(0.,0.,1.));
#225=DIRECTION('',(1.,0.,0.));
#226=DIRECTION('',(0.,0.,1.));
#227=DIRECTION('',(1.,0.,0.));
#228=DIRECTION('',(0.,0.,1.));
#229=DIRECTION('',(1.,0.,0.));
#230=DIRECTION('',(0.,0.,-1.));
#231=DIRECTION('',(-1.,0.,0.));
#232=DIRECTION('',(0.,0.,1.));
#233=DIRECTION('',(-1.,0.,0.));
#234=DIRECTION('',(0.,0.,-1.));
#235=DIRECTION('',(-1.,0.,0.));
#236=DIRECTION('',(0.,0.,-1.));
#237=DIRECTION('',(1.,0.,3.11316276845289E-17));
#238=DIRECTION('',(0.,0.,-1.));
#239=DIRECTION('',(1.,0.,0.));
#240=DIRECTION('',(0.,0.,-1.));
#241=DIRECTION('',(1.,0.,0.));
#242=DIRECTION('',(0.,0.,-1.));
#243=DIRECTION('',(-1.,0.,0.));
#244=DIRECTION('',(0.,0.,-1.));
#245=DIRECTION('',(-1.,0.,0.));
#246=DIRECTION('',(0.,0.,-1.));
#247=DIRECTION('',(1.,0.,5.47056121473031E-16));
#248=DIRECTION('',(0.,0.,-1.));
#249=DIRECTION('',(-1.,0.,0.));
#250=DIRECTION('',(0.,0.,-1.));
#251=DIRECTION('',(1.,0.,0.));
#252=DIRECTION('',(0.,0.,-1.));
#253=DIRECTION('',(-1.,0.,0.));
#254=DIRECTION('',(0.,0.,-1.));
#255=DIRECTION('',(1.,0.,0.));
#256=DIRECTION('',(0.,0.,1.));
#257=DIRECTION('',(-1.,0.,6.44276456740038E-18));
#258=DIRECTION('',(0.,0.,-1.));
#259=DIRECTION('',(1.,0.,0.));
#260=DIRECTION('',(0.,0.,1.));
#261=DIRECTION('',(-1.,0.,0.));
#262=DIRECTION('',(0.,0.,-1.));
#263=DIRECTION('',(1.,0.,0.));
#264=DIRECTION('',(0.,0.,-1.));
#265=DIRECTION('',(-1.,0.,0.));
#266=DIRECTION('',(0.,0.,-1.));
#267=DIRECTION('',(1.,0.,-7.52385290470544E-14));
#268=DIRECTION('',(-3.69778549322349E-32,0.,-1.));
#269=DIRECTION('',(1.,0.,0.));
#270=CARTESIAN_POINT('',(0.,0.,0.));
#271=CARTESIAN_POINT('',(0.,0.,27.887351054));
#272=CARTESIAN_POINT('',(0.,0.,0.));
#273=CARTESIAN_POINT('',(0.,0.,-27.112648946));
#274=CARTESIAN_POINT('CRP',(-1.25,0.,-27.1126));
#275=CARTESIAN_POINT('',(-1.24989091692147,0.,-24.6126489460021));
#276=CARTESIAN_POINT('',(-1.24992727794765,0.,-25.0293156126684));
#277=CARTESIAN_POINT('',(-1.24996363897382,0.,-25.4459822793347));
#278=CARTESIAN_POINT('',(-1.25,0.,-25.8626489460005));
#279=CARTESIAN_POINT('',(-1.25006389938773,0.,-26.5948819902455));
#280=CARTESIAN_POINT('',(-0.732233047033632,0.,-27.112648946));
#281=CARTESIAN_POINT('',(-7.65404249467096E-17,0.,-27.112648946));
#282=CARTESIAN_POINT('',(0.,0.,-26.2793156126667));
#283=CARTESIAN_POINT('',(0.,0.,-25.4459822793333));
#284=CARTESIAN_POINT('',(0.,0.,-24.612648946));
#285=CARTESIAN_POINT('',(-0.41663030564049,0.,-24.612648946));
#286=CARTESIAN_POINT('',(-0.83326061128098,0.,-24.612648946));
#287=CARTESIAN_POINT('',(-1.24989091692147,0.,-24.612648946));
#288=CARTESIAN_POINT('',(0.,0.,27.887351054));
#289=CARTESIAN_POINT('',(0.,0.,0.));
#290=CARTESIAN_POINT('',(0.,0.,-27.112648946));
#291=CARTESIAN_POINT('',(0.,0.,27.887351054));
#292=CARTESIAN_POINT('',(-2.5,0.,27.887351054));
#293=CARTESIAN_POINT('',(2.5,0.,27.887351054));
#294=CARTESIAN_POINT('',(0.,0.,27.387351054));
#295=CARTESIAN_POINT('',(-3.,0.,27.387351054));
#296=CARTESIAN_POINT('',(0.,0.,27.387351054));
#297=CARTESIAN_POINT('',(0.,0.,0.));
#298=CARTESIAN_POINT('',(3.,0.,0.));
#299=CARTESIAN_POINT('',(0.,0.,0.));
#300=CARTESIAN_POINT('',(0.,0.,-24.3297034958992));
#301=CARTESIAN_POINT('',(-1.2,0.,-24.3297034958992));
#302=CARTESIAN_POINT('',(0.,0.,-24.612648946));
#303=CARTESIAN_POINT('',(-1.24989091692147,0.,-24.612648946));
#304=CARTESIAN_POINT('',(0.,0.,-24.612648946));
#305=CARTESIAN_POINT('',(0.,0.,-7.11264894600001));
#306=CARTESIAN_POINT('',(-1.2,0.,-7.11264894600001));
#307=CARTESIAN_POINT('',(0.,0.,0.));
#308=CARTESIAN_POINT('',(0.,0.,-6.33619181069245));
#309=CARTESIAN_POINT('',(-1.30222252113279,0.,-6.33619181069245));
#310=CARTESIAN_POINT('',(0.,0.,-7.11264894600001));
#311=CARTESIAN_POINT('',(0.,0.,-6.33619181069245));
#312=CARTESIAN_POINT('',(0.,0.,-24.612648946));
#313=CARTESIAN_POINT('',(0.,0.,-24.612648946));
#314=CARTESIAN_POINT('',(-1.24989091692147,0.,-24.612648946));
#315=CARTESIAN_POINT('',(0.,0.,-24.612648946));
#316=CARTESIAN_POINT('',(0.,0.,-25.862648946));
#317=CARTESIAN_POINT('',(-1.25,0.,-25.862648946));
#318=CARTESIAN_POINT('',(0.,0.,-25.862648946));
#319=CARTESIAN_POINT('',(0.,0.,-25.862648946));
#320=MECHANICAL_DESIGN_GEOMETRIC_PRESENTATION_REPRESENTATION('',(#166,#167,
#168,#169,#170,#171,#172,#173,#174,#175),#321);
#321=(
GEOMETRIC_REPRESENTATION_CONTEXT(3)
GLOBAL_UNCERTAINTY_ASSIGNED_CONTEXT((#322))
GLOBAL_UNIT_ASSIGNED_CONTEXT((#328,#324,#323))
REPRESENTATION_CONTEXT('SMB416025G5B','TOP_LEVEL_ASSEMBLY_PART')
);
#322=UNCERTAINTY_MEASURE_WITH_UNIT(LENGTH_MEASURE(2.E-5),#328,
'DISTANCE_ACCURACY_VALUE','Maximum Tolerance applied to model');
#323=(
NAMED_UNIT(*)
SI_UNIT($,.STERADIAN.)
SOLID_ANGLE_UNIT()
);
#324=(
CONVERSION_BASED_UNIT('DEGREE',#326)
NAMED_UNIT(#325)
PLANE_ANGLE_UNIT()
);
#325=DIMENSIONAL_EXPONENTS(0.,0.,0.,0.,0.,0.,0.);
#326=PLANE_ANGLE_MEASURE_WITH_UNIT(PLANE_ANGLE_MEASURE(0.0174532925),#327);
#327=(
NAMED_UNIT(*)
PLANE_ANGLE_UNIT()
SI_UNIT($,.RADIAN.)
);
#328=(
LENGTH_UNIT()
NAMED_UNIT(*)
SI_UNIT(.MILLI.,.METRE.)
);
ENDSEC;
END-ISO-10303-21;
