ISO-10303-21;
HEADER;
/* Generated by software containing ST-Developer
 * from STEP Tools, Inc. (www.steptools.com) 
 */
/* OPTION: using custom schema-name function */

FILE_DESCRIPTION(
/* description */ (''),
/* implementation_level */ '2;1');

FILE_NAME(
/* name */ 'SMB414015G6B.0Z2 - Copy_dxf.stp',
/* time_stamp */ '2021-10-29T12:54:10+05:00',
/* author */ (''),
/* organization */ (''),
/* preprocessor_version */ 'ST-DEVELOPER v16.7',
/* originating_system */ 'SIEMENS PLM Software NX 12.0',
/* authorisation */ '');

FILE_SCHEMA (('AUTOMOTIVE_DESIGN { 1 0 10303 214 3 1 1 1 }'));
ENDSEC;

DATA;
#10=CONSTRUCTIVE_GEOMETRY_REPRESENTATION_RELATIONSHIP(
'supplemental geometry','',#26,#11);
#11=CONSTRUCTIVE_GEOMETRY_REPRESENTATION('supplemental geometry',(#190,
#191,#192),#312);
#12=GEOMETRICALLY_BOUNDED_WIREFRAME_SHAPE_REPRESENTATION(
'SMB414015G6B.0Z2 - Copy_dxf-None',(#27),#312);
#13=SHAPE_REPRESENTATION_RELATIONSHIP('None',
'relationship between SMB414015G6B.0Z2 - Copy_dxf-None and SMB414015G6
B.0Z2 - Copy_dxf-None',#26,#15);
#14=SHAPE_REPRESENTATION_RELATIONSHIP('None',
'relationship between SMB414015G6B.0Z2 - Copy_dxf-None and SMB414015G6
B.0Z2 - Copy_dxf-None',#26,#12);
#15=ADVANCED_BREP_SHAPE_REPRESENTATION(
'SMB414015G6B.0Z2 - Copy_dxf-None',(#39,#40),#312);
#16=SHAPE_DEFINITION_REPRESENTATION(#17,#26);
#17=PRODUCT_DEFINITION_SHAPE('','',#18);
#18=PRODUCT_DEFINITION(' ','',#20,#19);
#19=PRODUCT_DEFINITION_CONTEXT('part definition',#25,'design');
#20=PRODUCT_DEFINITION_FORMATION_WITH_SPECIFIED_SOURCE(' ',' ',#22,
 .NOT_KNOWN.);
#21=PRODUCT_RELATED_PRODUCT_CATEGORY('part','',(#22));
#22=PRODUCT('SMB414015G6B.0Z2 - Copy_dxf','SMB414015G6B.0Z2 - Copy_dxf',
' ',(#23));
#23=PRODUCT_CONTEXT(' ',#25,'mechanical');
#24=APPLICATION_PROTOCOL_DEFINITION('international standard',
'automotive_design',2010,#25);
#25=APPLICATION_CONTEXT(
'core data for automotive mechanical design processes');
#26=SHAPE_REPRESENTATION('SMB414015G6B.0Z2 - Copy_dxf-None',(#189),#312);
#27=GEOMETRIC_CURVE_SET('None',(#262,#263,#264,#265,#154));
#28=SPHERICAL_SURFACE('',#211,0.75);
#29=SURFACE_STYLE_USAGE(.BOTH.,#31);
#30=SURFACE_STYLE_USAGE(.BOTH.,#32);
#31=SURFACE_SIDE_STYLE('',(#33));
#32=SURFACE_SIDE_STYLE('',(#34));
#33=SURFACE_STYLE_FILL_AREA(#35);
#34=SURFACE_STYLE_FILL_AREA(#36);
#35=FILL_AREA_STYLE('',(#37));
#36=FILL_AREA_STYLE('',(#38));
#37=FILL_AREA_STYLE_COLOUR('',#187);
#38=FILL_AREA_STYLE_COLOUR('',#188);
#39=MANIFOLD_SOLID_BREP('NOCUT',#41);
#40=MANIFOLD_SOLID_BREP('CUT',#42);
#41=CLOSED_SHELL('',(#55,#56,#57,#58,#59,#60,#61,#62));
#42=CLOSED_SHELL('',(#63,#64,#65));
#43=PLANE('',#204);
#44=PLANE('',#206);
#45=PLANE('',#209);
#46=FACE_OUTER_BOUND('',#92,.T.);
#47=FACE_OUTER_BOUND('',#93,.T.);
#48=FACE_OUTER_BOUND('',#96,.T.);
#49=FACE_OUTER_BOUND('',#97,.T.);
#50=TOROIDAL_SURFACE('',#202,3.70000039152123,3.);
#51=CONICAL_SURFACE('',#198,0.74993439152121,9.9998888123958);
#52=CONICAL_SURFACE('',#203,0.802222912654023,14.9999985343391);
#53=CONICAL_SURFACE('',#207,2.00000039152121,45.);
#54=CONICAL_SURFACE('',#212,0.75000039152121,0.00504202858414093);
#55=ADVANCED_FACE('',(#68,#69),#66,.T.);
#56=ADVANCED_FACE('',(#70,#71),#51,.T.);
#57=ADVANCED_FACE('',(#72,#73),#67,.T.);
#58=ADVANCED_FACE('',(#74,#75),#50,.F.);
#59=ADVANCED_FACE('',(#76,#77),#52,.T.);
#60=ADVANCED_FACE('',(#46),#43,.F.);
#61=ADVANCED_FACE('',(#47),#44,.T.);
#62=ADVANCED_FACE('',(#78,#79),#53,.T.);
#63=ADVANCED_FACE('',(#48),#45,.T.);
#64=ADVANCED_FACE('',(#49),#28,.T.);
#65=ADVANCED_FACE('',(#80,#81),#54,.T.);
#66=CYLINDRICAL_SURFACE('',#195,2.00000039152121);
#67=CYLINDRICAL_SURFACE('',#200,0.70000039152123);
#68=FACE_BOUND('',#82,.T.);
#69=FACE_BOUND('',#83,.T.);
#70=FACE_BOUND('',#84,.T.);
#71=FACE_BOUND('',#85,.T.);
#72=FACE_BOUND('',#86,.T.);
#73=FACE_BOUND('',#87,.T.);
#74=FACE_BOUND('',#88,.T.);
#75=FACE_BOUND('',#89,.T.);
#76=FACE_BOUND('',#90,.T.);
#77=FACE_BOUND('',#91,.T.);
#78=FACE_BOUND('',#94,.T.);
#79=FACE_BOUND('',#95,.T.);
#80=FACE_BOUND('',#98,.T.);
#81=FACE_BOUND('',#99,.T.);
#82=EDGE_LOOP('',(#100));
#83=EDGE_LOOP('',(#101));
#84=EDGE_LOOP('',(#102));
#85=EDGE_LOOP('',(#103));
#86=EDGE_LOOP('',(#104));
#87=EDGE_LOOP('',(#105));
#88=EDGE_LOOP('',(#106));
#89=EDGE_LOOP('',(#107));
#90=EDGE_LOOP('',(#108));
#91=EDGE_LOOP('',(#109));
#92=EDGE_LOOP('',(#110));
#93=EDGE_LOOP('',(#111));
#94=EDGE_LOOP('',(#112));
#95=EDGE_LOOP('',(#113));
#96=EDGE_LOOP('',(#114));
#97=EDGE_LOOP('',(#115));
#98=EDGE_LOOP('',(#116));
#99=EDGE_LOOP('',(#117));
#100=ORIENTED_EDGE('',*,*,#127,.F.);
#101=ORIENTED_EDGE('',*,*,#128,.T.);
#102=ORIENTED_EDGE('',*,*,#129,.T.);
#103=ORIENTED_EDGE('',*,*,#130,.F.);
#104=ORIENTED_EDGE('',*,*,#131,.T.);
#105=ORIENTED_EDGE('',*,*,#129,.F.);
#106=ORIENTED_EDGE('',*,*,#132,.T.);
#107=ORIENTED_EDGE('',*,*,#131,.F.);
#108=ORIENTED_EDGE('',*,*,#127,.T.);
#109=ORIENTED_EDGE('',*,*,#132,.F.);
#110=ORIENTED_EDGE('',*,*,#130,.T.);
#111=ORIENTED_EDGE('',*,*,#133,.F.);
#112=ORIENTED_EDGE('',*,*,#133,.T.);
#113=ORIENTED_EDGE('',*,*,#128,.F.);
#114=ORIENTED_EDGE('',*,*,#134,.F.);
#115=ORIENTED_EDGE('',*,*,#135,.T.);
#116=ORIENTED_EDGE('',*,*,#134,.T.);
#117=ORIENTED_EDGE('',*,*,#135,.F.);
#118=VERTEX_POINT('',#283);
#119=VERTEX_POINT('',#285);
#120=VERTEX_POINT('',#288);
#121=VERTEX_POINT('',#290);
#122=VERTEX_POINT('',#293);
#123=VERTEX_POINT('',#296);
#124=VERTEX_POINT('',#301);
#125=VERTEX_POINT('',#305);
#126=VERTEX_POINT('',#308);
#127=EDGE_CURVE('',#118,#118,#136,.T.);
#128=EDGE_CURVE('',#119,#119,#137,.T.);
#129=EDGE_CURVE('',#120,#120,#138,.T.);
#130=EDGE_CURVE('',#121,#121,#139,.T.);
#131=EDGE_CURVE('',#122,#122,#140,.T.);
#132=EDGE_CURVE('',#123,#123,#141,.T.);
#133=EDGE_CURVE('',#124,#124,#142,.T.);
#134=EDGE_CURVE('',#125,#125,#143,.T.);
#135=EDGE_CURVE('',#126,#126,#144,.T.);
#136=CIRCLE('',#193,2.00000039152121);
#137=CIRCLE('',#194,2.00000039152121);
#138=CIRCLE('',#196,0.70000039152123);
#139=CIRCLE('',#197,0.74993439152121);
#140=CIRCLE('',#199,0.70000039152123);
#141=CIRCLE('',#201,0.802222912654023);
#142=CIRCLE('',#205,1.50000039152121);
#143=CIRCLE('',#208,0.74993439152121);
#144=CIRCLE('',#210,0.75000039152121);
#145=CURVE_STYLE('',#150,POSITIVE_LENGTH_MEASURE(0.18),#149);
#146=CURVE_STYLE('',#151,POSITIVE_LENGTH_MEASURE(0.18),#185);
#147=CURVE_STYLE('',#152,POSITIVE_LENGTH_MEASURE(0.18),#185);
#148=CURVE_STYLE('',#153,POSITIVE_LENGTH_MEASURE(0.18),#185);
#149=DRAUGHTING_PRE_DEFINED_COLOUR('blue');
#150=DRAUGHTING_PRE_DEFINED_CURVE_FONT('continuous');
#151=DRAUGHTING_PRE_DEFINED_CURVE_FONT('continuous');
#152=DRAUGHTING_PRE_DEFINED_CURVE_FONT('continuous');
#153=DRAUGHTING_PRE_DEFINED_CURVE_FONT('continuous');
#154=TRIMMED_CURVE('CUTTING PART LINE',#155,(PARAMETER_VALUE(0.)),(
PARAMETER_VALUE(1.)),.T.,.PARAMETER.);
#155=(
BOUNDED_CURVE()
B_SPLINE_CURVE(3,(#266,#267,#268,#269,#270,#271,#272,#273,#274,#275,#276,
#277,#278),.UNSPECIFIED.,.T.,.F.)
B_SPLINE_CURVE_WITH_KNOTS((4,3,3,3,4),(0.,0.179510369371834,0.461484597126983,
0.820505334506372,1.),.UNSPECIFIED.)
CURVE()
GEOMETRIC_REPRESENTATION_ITEM()
RATIONAL_B_SPLINE_CURVE((1.,1.,1.,1.,0.804737854124365,0.804737854124365,
1.,1.,1.,1.,1.,1.,1.))
REPRESENTATION_ITEM('CUTTING PART LINE')
);
#156=PRESENTATION_LAYER_ASSIGNMENT('1','Layer 1',(#262,#263,#264,#265,#154,
#190,#191,#192,#39,#40));
#157=STYLED_ITEM('',(#167),#262);
#158=STYLED_ITEM('',(#168),#263);
#159=STYLED_ITEM('',(#169),#264);
#160=STYLED_ITEM('',(#170),#265);
#161=STYLED_ITEM('',(#171),#154);
#162=STYLED_ITEM('',(#172),#190);
#163=STYLED_ITEM('',(#173),#191);
#164=STYLED_ITEM('',(#174),#192);
#165=STYLED_ITEM('',(#175),#39);
#166=STYLED_ITEM('',(#176),#40);
#167=PRESENTATION_STYLE_ASSIGNMENT((#177));
#168=PRESENTATION_STYLE_ASSIGNMENT((#178));
#169=PRESENTATION_STYLE_ASSIGNMENT((#179));
#170=PRESENTATION_STYLE_ASSIGNMENT((#180));
#171=PRESENTATION_STYLE_ASSIGNMENT((#145));
#172=PRESENTATION_STYLE_ASSIGNMENT((#146));
#173=PRESENTATION_STYLE_ASSIGNMENT((#147));
#174=PRESENTATION_STYLE_ASSIGNMENT((#148));
#175=PRESENTATION_STYLE_ASSIGNMENT((#29));
#176=PRESENTATION_STYLE_ASSIGNMENT((#30));
#177=POINT_STYLE('',#181,POSITIVE_LENGTH_MEASURE(3.),#185);
#178=POINT_STYLE('',#182,POSITIVE_LENGTH_MEASURE(3.),#185);
#179=POINT_STYLE('',#183,POSITIVE_LENGTH_MEASURE(3.),#185);
#180=POINT_STYLE('',#184,POSITIVE_LENGTH_MEASURE(3.),#186);
#181=PRE_DEFINED_POINT_MARKER_SYMBOL('plus');
#182=PRE_DEFINED_POINT_MARKER_SYMBOL('plus');
#183=PRE_DEFINED_POINT_MARKER_SYMBOL('plus');
#184=PRE_DEFINED_POINT_MARKER_SYMBOL('plus');
#185=COLOUR_RGB('Strong Stone',0.576470588235294,0.54508278019379,0.392156862745098);
#186=COLOUR_RGB('Medium Royal',0.2,0.4,0.8);
#187=COLOUR_RGB('Medium Gray',0.490196078431373,0.490196078431373,0.490196078431373);
#188=COLOUR_RGB('Light Gray',0.8,0.8,0.8);
#189=AXIS2_PLACEMENT_3D('',#261,#213,#214);
#190=AXIS2_PLACEMENT_3D('MCS',#279,#215,#216);
#191=AXIS2_PLACEMENT_3D('CIP',#280,#217,#218);
#192=AXIS2_PLACEMENT_3D('PCS',#281,#219,#220);
#193=AXIS2_PLACEMENT_3D('',#282,#221,#222);
#194=AXIS2_PLACEMENT_3D('',#284,#223,#224);
#195=AXIS2_PLACEMENT_3D('',#286,#225,#226);
#196=AXIS2_PLACEMENT_3D('',#287,#227,#228);
#197=AXIS2_PLACEMENT_3D('',#289,#229,#230);
#198=AXIS2_PLACEMENT_3D('',#291,#231,#232);
#199=AXIS2_PLACEMENT_3D('',#292,#233,#234);
#200=AXIS2_PLACEMENT_3D('',#294,#235,#236);
#201=AXIS2_PLACEMENT_3D('',#295,#237,#238);
#202=AXIS2_PLACEMENT_3D('',#297,#239,#240);
#203=AXIS2_PLACEMENT_3D('',#298,#241,#242);
#204=AXIS2_PLACEMENT_3D('',#299,#243,#244);
#205=AXIS2_PLACEMENT_3D('',#300,#245,#246);
#206=AXIS2_PLACEMENT_3D('',#302,#247,#248);
#207=AXIS2_PLACEMENT_3D('',#303,#249,#250);
#208=AXIS2_PLACEMENT_3D('',#304,#251,#252);
#209=AXIS2_PLACEMENT_3D('',#306,#253,#254);
#210=AXIS2_PLACEMENT_3D('',#307,#255,#256);
#211=AXIS2_PLACEMENT_3D('',#309,#257,#258);
#212=AXIS2_PLACEMENT_3D('',#310,#259,#260);
#213=DIRECTION('',(0.,0.,1.));
#214=DIRECTION('',(1.,0.,0.));
#215=DIRECTION('',(0.,0.,1.));
#216=DIRECTION('',(1.,0.,0.));
#217=DIRECTION('',(0.,0.,1.));
#218=DIRECTION('',(1.,0.,0.));
#219=DIRECTION('',(0.,0.,1.));
#220=DIRECTION('',(1.,0.,0.));
#221=DIRECTION('',(0.,0.,-1.));
#222=DIRECTION('',(-1.,0.,0.));
#223=DIRECTION('',(0.,0.,-1.));
#224=DIRECTION('',(-1.,0.,0.));
#225=DIRECTION('',(0.,0.,-1.));
#226=DIRECTION('',(-1.,0.,0.));
#227=DIRECTION('',(0.,0.,-1.));
#228=DIRECTION('',(-1.,0.,0.));
#229=DIRECTION('',(0.,0.,-1.));
#230=DIRECTION('',(1.,0.,0.));
#231=DIRECTION('',(0.,0.,-1.));
#232=DIRECTION('',(-1.,0.,9.79655127352689E-17));
#233=DIRECTION('',(0.,0.,-1.));
#234=DIRECTION('',(-1.,0.,0.));
#235=DIRECTION('',(0.,0.,-1.));
#236=DIRECTION('',(-1.,0.,0.));
#237=DIRECTION('',(0.,0.,-1.));
#238=DIRECTION('',(-1.,0.,0.));
#239=DIRECTION('',(0.,0.,-1.));
#240=DIRECTION('',(-1.,0.,0.));
#241=DIRECTION('',(0.,0.,1.));
#242=DIRECTION('',(1.,0.,-1.74278295687061E-16));
#243=DIRECTION('',(0.,0.,1.));
#244=DIRECTION('',(1.,0.,0.));
#245=DIRECTION('',(0.,0.,-1.));
#246=DIRECTION('',(-1.,0.,0.));
#247=DIRECTION('',(0.,0.,1.));
#248=DIRECTION('',(1.,0.,0.));
#249=DIRECTION('',(0.,0.,-1.));
#250=DIRECTION('',(-1.,0.,-4.50127847881972E-17));
#251=DIRECTION('',(0.,0.,-1.));
#252=DIRECTION('',(1.,0.,0.));
#253=DIRECTION('',(0.,0.,1.));
#254=DIRECTION('',(1.,0.,0.));
#255=DIRECTION('',(0.,0.,-1.));
#256=DIRECTION('',(-1.,0.,0.));
#257=DIRECTION('',(0.,-6.12323205711087E-17,-1.));
#258=DIRECTION('',(0.,-1.,0.));
#259=DIRECTION('',(0.,0.,-1.));
#260=DIRECTION('',(-1.,0.,-1.24204486789865E-14));
#261=CARTESIAN_POINT('',(0.,0.,0.));
#262=CARTESIAN_POINT('',(0.,0.,0.));
#263=CARTESIAN_POINT('',(0.,0.,-27.000000396509));
#264=CARTESIAN_POINT('',(0.,0.,27.9999996034913));
#265=CARTESIAN_POINT('CRP',(-0.75,0.,-27.));
#266=CARTESIAN_POINT('',(-0.74993439152121,0.,-25.5000003965105));
#267=CARTESIAN_POINT('',(-0.74995639152121,0.,-25.750000396504));
#268=CARTESIAN_POINT('',(-0.749978391521209,0.,-26.0000003964975));
#269=CARTESIAN_POINT('',(-0.750000195760553,0.,-26.2500003964998));
#270=CARTESIAN_POINT('',(-0.75003851364348,0.,-26.6893402230579));
#271=CARTESIAN_POINT('',(-0.439339828220119,0.,-27.0000003965086));
#272=CARTESIAN_POINT('',(-4.59242549680195E-17,0.,-27.0000003965086));
#273=CARTESIAN_POINT('',(0.,0.,-26.5000003965086));
#274=CARTESIAN_POINT('',(0.,0.,-26.0000003965087));
#275=CARTESIAN_POINT('',(0.,0.,-25.5000003965087));
#276=CARTESIAN_POINT('',(-0.24997813050707,0.,-25.5000003965087));
#277=CARTESIAN_POINT('',(-0.49995626101414,0.,-25.5000003965087));
#278=CARTESIAN_POINT('',(-0.74993439152121,0.,-25.5000003965087));
#279=CARTESIAN_POINT('',(0.,0.,0.));
#280=CARTESIAN_POINT('',(0.,0.,-27.000000396509));
#281=CARTESIAN_POINT('',(0.,0.,27.9999996034913));
#282=CARTESIAN_POINT('',(0.,0.,-1.75337639650874));
#283=CARTESIAN_POINT('',(-2.00000039152121,0.,-1.75337639650874));
#284=CARTESIAN_POINT('',(0.,0.,27.4999996034913));
#285=CARTESIAN_POINT('',(-2.00000039152121,0.,27.4999996034913));
#286=CARTESIAN_POINT('',(0.,0.,0.));
#287=CARTESIAN_POINT('',(0.,0.,-25.2168073965088));
#288=CARTESIAN_POINT('',(-0.70000039152123,0.,-25.2168073965088));
#289=CARTESIAN_POINT('',(0.,0.,-25.5000003965087));
#290=CARTESIAN_POINT('',(0.74993439152121,0.,-25.5000003965087));
#291=CARTESIAN_POINT('',(0.,0.,-25.5000003965087));
#292=CARTESIAN_POINT('',(0.,0.,-7.00000039650874));
#293=CARTESIAN_POINT('',(-0.70000039152123,0.,-7.00000039650874));
#294=CARTESIAN_POINT('',(0.,0.,0.));
#295=CARTESIAN_POINT('',(0.,0.,-6.22354326120118));
#296=CARTESIAN_POINT('',(-0.802222912654023,0.,-6.22354326120118));
#297=CARTESIAN_POINT('',(0.,0.,-7.00000039650874));
#298=CARTESIAN_POINT('',(0.,0.,-6.22354326120118));
#299=CARTESIAN_POINT('',(0.,0.,-25.5000003965087));
#300=CARTESIAN_POINT('',(0.,0.,27.9999996034913));
#301=CARTESIAN_POINT('',(-1.50000039152121,0.,27.9999996034913));
#302=CARTESIAN_POINT('',(0.,1.50000039152121,27.9999996034913));
#303=CARTESIAN_POINT('',(0.,0.,27.4999996034913));
#304=CARTESIAN_POINT('',(0.,0.,-25.5000003965087));
#305=CARTESIAN_POINT('',(0.74993439152121,0.,-25.5000003965087));
#306=CARTESIAN_POINT('',(0.,0.,-25.5000003965087));
#307=CARTESIAN_POINT('',(0.,0.,-26.2500003965087));
#308=CARTESIAN_POINT('',(-0.75000039152121,0.,-26.2500003965087));
#309=CARTESIAN_POINT('',(0.,3.9152121E-7,-26.2500003965087));
#310=CARTESIAN_POINT('',(0.,0.,-26.2500003965087));
#311=MECHANICAL_DESIGN_GEOMETRIC_PRESENTATION_REPRESENTATION('',(#157,#158,
#159,#160,#161,#162,#163,#164,#165,#166),#312);
#312=(
GEOMETRIC_REPRESENTATION_CONTEXT(3)
GLOBAL_UNCERTAINTY_ASSIGNED_CONTEXT((#313))
GLOBAL_UNIT_ASSIGNED_CONTEXT((#319,#315,#314))
REPRESENTATION_CONTEXT('SMB414015G6B','TOP_LEVEL_ASSEMBLY_PART')
);
#313=UNCERTAINTY_MEASURE_WITH_UNIT(LENGTH_MEASURE(2.E-5),#319,
'DISTANCE_ACCURACY_VALUE','Maximum Tolerance applied to model');
#314=(
NAMED_UNIT(*)
SI_UNIT($,.STERADIAN.)
SOLID_ANGLE_UNIT()
);
#315=(
CONVERSION_BASED_UNIT('DEGREE',#317)
NAMED_UNIT(#316)
PLANE_ANGLE_UNIT()
);
#316=DIMENSIONAL_EXPONENTS(0.,0.,0.,0.,0.,0.,0.);
#317=PLANE_ANGLE_MEASURE_WITH_UNIT(PLANE_ANGLE_MEASURE(0.0174532925),#318);
#318=(
NAMED_UNIT(*)
PLANE_ANGLE_UNIT()
SI_UNIT($,.RADIAN.)
);
#319=(
LENGTH_UNIT()
NAMED_UNIT(*)
SI_UNIT(.MILLI.,.METRE.)
);
ENDSEC;
END-ISO-10303-21;
