ISO-10303-21;
HEADER;
/* Generated by software containing ST-Developer
 * from STEP Tools, Inc. (www.steptools.com) 
 */
/* OPTION: using custom schema-name function */

FILE_DESCRIPTION(
/* description */ (''),
/* implementation_level */ '2;1');

FILE_NAME(
/* name */ 'SMB413010G7B.0Z2_Basic.stp',
/* time_stamp */ '2021-10-20T11:20:20+06:00',
/* author */ (''),
/* organization */ (''),
/* preprocessor_version */ 'ST-DEVELOPER v16.7',
/* originating_system */ 'SIEMENS PLM Software NX 12.0',
/* authorisation */ '');

FILE_SCHEMA (('AUTOMOTIVE_DESIGN { 1 0 10303 214 3 1 1 1 }'));
ENDSEC;

DATA;
#10=CONSTRUCTIVE_GEOMETRY_REPRESENTATION_RELATIONSHIP(
'supplemental geometry','',#34,#11);
#11=CONSTRUCTIVE_GEOMETRY_REPRESENTATION('supplemental geometry',(#220,
#221,#222),#355);
#12=GEOMETRICALLY_BOUNDED_WIREFRAME_SHAPE_REPRESENTATION(
'inpu4054F599zz8c-None',(#35),#355);
#13=PROPERTY_DEFINITION_REPRESENTATION(#17,#15);
#14=PROPERTY_DEFINITION_REPRESENTATION(#18,#16);
#15=REPRESENTATION('',(#19),#355);
#16=REPRESENTATION('',(#20),#355);
#17=PROPERTY_DEFINITION('pmi validation property','',#25);
#18=PROPERTY_DEFINITION('pmi validation property','',#25);
#19=VALUE_REPRESENTATION_ITEM('number of annotations',COUNT_MEASURE(0.));
#20=VALUE_REPRESENTATION_ITEM('number of views',COUNT_MEASURE(0.));
#21=SHAPE_REPRESENTATION_RELATIONSHIP('None',
'relationship between inpu4054F599zz8c-None and inpu4054F599zz8c-None',
#34,#23);
#22=SHAPE_REPRESENTATION_RELATIONSHIP('None',
'relationship between inpu4054F599zz8c-None and inpu4054F599zz8c-None',
#34,#12);
#23=ADVANCED_BREP_SHAPE_REPRESENTATION('inpu4054F599zz8c-None',(#53,#54,
#55),#355);
#24=SHAPE_DEFINITION_REPRESENTATION(#25,#34);
#25=PRODUCT_DEFINITION_SHAPE('','',#26);
#26=PRODUCT_DEFINITION(' ','',#28,#27);
#27=PRODUCT_DEFINITION_CONTEXT('part definition',#33,'design');
#28=PRODUCT_DEFINITION_FORMATION_WITH_SPECIFIED_SOURCE(' ',' ',#30,
 .NOT_KNOWN.);
#29=PRODUCT_RELATED_PRODUCT_CATEGORY('part','',(#30));
#30=PRODUCT('inpu4054F599zz8c','inpu4054F599zz8c',' ',(#31));
#31=PRODUCT_CONTEXT(' ',#33,'mechanical');
#32=APPLICATION_PROTOCOL_DEFINITION('international standard',
'automotive_design',2010,#33);
#33=APPLICATION_CONTEXT(
'core data for automotive mechanical design processes');
#34=SHAPE_REPRESENTATION('inpu4054F599zz8c-None',(#219),#355);
#35=GEOMETRIC_CURVE_SET('None',(#301,#302,#303,#304,#182));
#36=SPHERICAL_SURFACE('',#245,0.5);
#37=TOROIDAL_SURFACE('',#236,3.475,3.);
#38=SURFACE_STYLE_USAGE(.BOTH.,#41);
#39=SURFACE_STYLE_USAGE(.BOTH.,#42);
#40=SURFACE_STYLE_USAGE(.BOTH.,#43);
#41=SURFACE_SIDE_STYLE('',(#44));
#42=SURFACE_SIDE_STYLE('',(#45));
#43=SURFACE_SIDE_STYLE('',(#46));
#44=SURFACE_STYLE_FILL_AREA(#47);
#45=SURFACE_STYLE_FILL_AREA(#48);
#46=SURFACE_STYLE_FILL_AREA(#49);
#47=FILL_AREA_STYLE('',(#50));
#48=FILL_AREA_STYLE('',(#51));
#49=FILL_AREA_STYLE('',(#52));
#50=FILL_AREA_STYLE_COLOUR('',#217);
#51=FILL_AREA_STYLE_COLOUR('',#217);
#52=FILL_AREA_STYLE_COLOUR('',#218);
#53=MANIFOLD_SOLID_BREP('NOCUT',#56);
#54=MANIFOLD_SOLID_BREP('NOCUT',#57);
#55=MANIFOLD_SOLID_BREP('CUT',#58);
#56=CLOSED_SHELL('',(#79,#80,#81,#82));
#57=CLOSED_SHELL('',(#83,#84,#85,#86,#87,#88));
#58=CLOSED_SHELL('',(#89,#90,#91));
#59=CYLINDRICAL_SURFACE('',#228,1.5);
#60=CYLINDRICAL_SURFACE('',#234,0.474999999999998);
#61=CONICAL_SURFACE('',#226,1.5,45.0000000000002);
#62=CONICAL_SURFACE('',#232,0.499956366768591,10.0000000000001);
#63=CONICAL_SURFACE('',#238,0.577222521132791,15.);
#64=CONICAL_SURFACE('',#244,0.500000000000001,0.00499999999999592);
#65=FACE_BOUND('',#104,.T.);
#66=FACE_BOUND('',#105,.T.);
#67=FACE_BOUND('',#106,.T.);
#68=FACE_BOUND('',#107,.T.);
#69=FACE_BOUND('',#109,.T.);
#70=FACE_BOUND('',#110,.T.);
#71=FACE_BOUND('',#111,.T.);
#72=FACE_BOUND('',#112,.T.);
#73=FACE_BOUND('',#113,.T.);
#74=FACE_BOUND('',#114,.T.);
#75=FACE_BOUND('',#115,.T.);
#76=FACE_BOUND('',#116,.T.);
#77=FACE_BOUND('',#120,.T.);
#78=FACE_BOUND('',#121,.T.);
#79=ADVANCED_FACE('',(#97),#92,.T.);
#80=ADVANCED_FACE('',(#65,#66),#61,.T.);
#81=ADVANCED_FACE('',(#67,#68),#59,.T.);
#82=ADVANCED_FACE('',(#98),#93,.F.);
#83=ADVANCED_FACE('',(#69,#70),#62,.T.);
#84=ADVANCED_FACE('',(#71,#72),#60,.T.);
#85=ADVANCED_FACE('',(#73,#74),#37,.F.);
#86=ADVANCED_FACE('',(#75,#76),#63,.T.);
#87=ADVANCED_FACE('',(#99),#94,.T.);
#88=ADVANCED_FACE('',(#100),#95,.T.);
#89=ADVANCED_FACE('',(#101),#96,.F.);
#90=ADVANCED_FACE('',(#77,#78),#64,.T.);
#91=ADVANCED_FACE('',(#102),#36,.T.);
#92=PLANE('',#224);
#93=PLANE('',#229);
#94=PLANE('',#239);
#95=PLANE('',#240);
#96=PLANE('',#242);
#97=FACE_OUTER_BOUND('',#103,.T.);
#98=FACE_OUTER_BOUND('',#108,.T.);
#99=FACE_OUTER_BOUND('',#117,.T.);
#100=FACE_OUTER_BOUND('',#118,.T.);
#101=FACE_OUTER_BOUND('',#119,.T.);
#102=FACE_OUTER_BOUND('',#122,.T.);
#103=EDGE_LOOP('',(#123));
#104=EDGE_LOOP('',(#124));
#105=EDGE_LOOP('',(#125));
#106=EDGE_LOOP('',(#126));
#107=EDGE_LOOP('',(#127));
#108=EDGE_LOOP('',(#128));
#109=EDGE_LOOP('',(#129));
#110=EDGE_LOOP('',(#130));
#111=EDGE_LOOP('',(#131));
#112=EDGE_LOOP('',(#132));
#113=EDGE_LOOP('',(#133));
#114=EDGE_LOOP('',(#134));
#115=EDGE_LOOP('',(#135));
#116=EDGE_LOOP('',(#136));
#117=EDGE_LOOP('',(#137));
#118=EDGE_LOOP('',(#138));
#119=EDGE_LOOP('',(#139));
#120=EDGE_LOOP('',(#140));
#121=EDGE_LOOP('',(#141));
#122=EDGE_LOOP('',(#142));
#123=ORIENTED_EDGE('',*,*,#153,.F.);
#124=ORIENTED_EDGE('',*,*,#153,.T.);
#125=ORIENTED_EDGE('',*,*,#154,.F.);
#126=ORIENTED_EDGE('',*,*,#154,.T.);
#127=ORIENTED_EDGE('',*,*,#155,.T.);
#128=ORIENTED_EDGE('',*,*,#155,.F.);
#129=ORIENTED_EDGE('',*,*,#156,.T.);
#130=ORIENTED_EDGE('',*,*,#157,.F.);
#131=ORIENTED_EDGE('',*,*,#158,.T.);
#132=ORIENTED_EDGE('',*,*,#156,.F.);
#133=ORIENTED_EDGE('',*,*,#159,.T.);
#134=ORIENTED_EDGE('',*,*,#158,.F.);
#135=ORIENTED_EDGE('',*,*,#160,.T.);
#136=ORIENTED_EDGE('',*,*,#159,.F.);
#137=ORIENTED_EDGE('',*,*,#160,.F.);
#138=ORIENTED_EDGE('',*,*,#157,.T.);
#139=ORIENTED_EDGE('',*,*,#161,.T.);
#140=ORIENTED_EDGE('',*,*,#161,.F.);
#141=ORIENTED_EDGE('',*,*,#162,.F.);
#142=ORIENTED_EDGE('',*,*,#162,.T.);
#143=VERTEX_POINT('',#322);
#144=VERTEX_POINT('',#325);
#145=VERTEX_POINT('',#328);
#146=VERTEX_POINT('',#332);
#147=VERTEX_POINT('',#334);
#148=VERTEX_POINT('',#337);
#149=VERTEX_POINT('',#340);
#150=VERTEX_POINT('',#343);
#151=VERTEX_POINT('',#348);
#152=VERTEX_POINT('',#351);
#153=EDGE_CURVE('',#143,#143,#163,.T.);
#154=EDGE_CURVE('',#144,#144,#164,.T.);
#155=EDGE_CURVE('',#145,#145,#165,.T.);
#156=EDGE_CURVE('',#146,#146,#166,.T.);
#157=EDGE_CURVE('',#147,#147,#167,.T.);
#158=EDGE_CURVE('',#148,#148,#168,.T.);
#159=EDGE_CURVE('',#149,#149,#169,.T.);
#160=EDGE_CURVE('',#150,#150,#170,.T.);
#161=EDGE_CURVE('',#151,#151,#171,.T.);
#162=EDGE_CURVE('',#152,#152,#172,.T.);
#163=CIRCLE('',#223,1.2);
#164=CIRCLE('',#225,1.5);
#165=CIRCLE('',#227,1.5);
#166=CIRCLE('',#230,0.475);
#167=CIRCLE('',#231,0.499956366768591);
#168=CIRCLE('',#233,0.474999999999997);
#169=CIRCLE('',#235,0.577222521132791);
#170=CIRCLE('',#237,1.5);
#171=CIRCLE('',#241,0.499956366768591);
#172=CIRCLE('',#243,0.500000000000001);
#173=CURVE_STYLE('',#178,POSITIVE_LENGTH_MEASURE(0.18),#177);
#174=CURVE_STYLE('',#179,POSITIVE_LENGTH_MEASURE(0.18),#215);
#175=CURVE_STYLE('',#180,POSITIVE_LENGTH_MEASURE(0.18),#215);
#176=CURVE_STYLE('',#181,POSITIVE_LENGTH_MEASURE(0.18),#215);
#177=DRAUGHTING_PRE_DEFINED_COLOUR('blue');
#178=DRAUGHTING_PRE_DEFINED_CURVE_FONT('continuous');
#179=DRAUGHTING_PRE_DEFINED_CURVE_FONT('continuous');
#180=DRAUGHTING_PRE_DEFINED_CURVE_FONT('continuous');
#181=DRAUGHTING_PRE_DEFINED_CURVE_FONT('continuous');
#182=TRIMMED_CURVE('CUTTING PART LINE',#183,(PARAMETER_VALUE(0.)),(
PARAMETER_VALUE(1.)),.T.,.PARAMETER.);
#183=(
BOUNDED_CURVE()
B_SPLINE_CURVE(3,(#305,#306,#307,#308,#309,#310,#311,#312,#313,#314,#315,
#316,#317),.UNSPECIFIED.,.T.,.F.)
B_SPLINE_CURVE_WITH_KNOTS((4,3,3,3,4),(0.,0.359020723747423,0.640994940793483,
0.820505303367285,1.),.UNSPECIFIED.)
CURVE()
GEOMETRIC_REPRESENTATION_ITEM()
RATIONAL_B_SPLINE_CURVE((1.,1.,1.,1.,0.804737854124365,0.804737854124365,
1.,1.,1.,1.,1.,1.,1.))
REPRESENTATION_ITEM('CUTTING PART LINE')
);
#184=PRESENTATION_LAYER_ASSIGNMENT('1','Layer 1',(#301,#302,#303,#304,#182,
#220,#221,#222,#53,#54,#55));
#185=STYLED_ITEM('',(#196),#301);
#186=STYLED_ITEM('',(#197),#302);
#187=STYLED_ITEM('',(#198),#303);
#188=STYLED_ITEM('',(#199),#304);
#189=STYLED_ITEM('',(#200),#182);
#190=STYLED_ITEM('',(#201),#220);
#191=STYLED_ITEM('',(#202),#221);
#192=STYLED_ITEM('',(#203),#222);
#193=STYLED_ITEM('',(#204),#53);
#194=STYLED_ITEM('',(#205),#54);
#195=STYLED_ITEM('',(#206),#55);
#196=PRESENTATION_STYLE_ASSIGNMENT((#207));
#197=PRESENTATION_STYLE_ASSIGNMENT((#208));
#198=PRESENTATION_STYLE_ASSIGNMENT((#209));
#199=PRESENTATION_STYLE_ASSIGNMENT((#210));
#200=PRESENTATION_STYLE_ASSIGNMENT((#173));
#201=PRESENTATION_STYLE_ASSIGNMENT((#174));
#202=PRESENTATION_STYLE_ASSIGNMENT((#175));
#203=PRESENTATION_STYLE_ASSIGNMENT((#176));
#204=PRESENTATION_STYLE_ASSIGNMENT((#38));
#205=PRESENTATION_STYLE_ASSIGNMENT((#39));
#206=PRESENTATION_STYLE_ASSIGNMENT((#40));
#207=POINT_STYLE('',#211,POSITIVE_LENGTH_MEASURE(3.),#215);
#208=POINT_STYLE('',#212,POSITIVE_LENGTH_MEASURE(3.),#215);
#209=POINT_STYLE('',#213,POSITIVE_LENGTH_MEASURE(3.),#215);
#210=POINT_STYLE('',#214,POSITIVE_LENGTH_MEASURE(3.),#216);
#211=PRE_DEFINED_POINT_MARKER_SYMBOL('plus');
#212=PRE_DEFINED_POINT_MARKER_SYMBOL('plus');
#213=PRE_DEFINED_POINT_MARKER_SYMBOL('plus');
#214=PRE_DEFINED_POINT_MARKER_SYMBOL('plus');
#215=COLOUR_RGB('Pale Maroon',0.811749446860456,0.603921568627451,0.611749446860456);
#216=COLOUR_RGB('Medium Royal',0.2,0.4,0.8);
#217=COLOUR_RGB('Medium Gray',0.490196078431373,0.490196078431373,0.490196078431373);
#218=COLOUR_RGB('Light Gray',0.8,0.8,0.8);
#219=AXIS2_PLACEMENT_3D('',#300,#246,#247);
#220=AXIS2_PLACEMENT_3D('PCS',#318,#248,#249);
#221=AXIS2_PLACEMENT_3D('MCS',#319,#250,#251);
#222=AXIS2_PLACEMENT_3D('CIP',#320,#252,#253);
#223=AXIS2_PLACEMENT_3D('',#321,#254,#255);
#224=AXIS2_PLACEMENT_3D('',#323,#256,#257);
#225=AXIS2_PLACEMENT_3D('',#324,#258,#259);
#226=AXIS2_PLACEMENT_3D('',#326,#260,#261);
#227=AXIS2_PLACEMENT_3D('',#327,#262,#263);
#228=AXIS2_PLACEMENT_3D('',#329,#264,#265);
#229=AXIS2_PLACEMENT_3D('',#330,#266,#267);
#230=AXIS2_PLACEMENT_3D('',#331,#268,#269);
#231=AXIS2_PLACEMENT_3D('',#333,#270,#271);
#232=AXIS2_PLACEMENT_3D('',#335,#272,#273);
#233=AXIS2_PLACEMENT_3D('',#336,#274,#275);
#234=AXIS2_PLACEMENT_3D('',#338,#276,#277);
#235=AXIS2_PLACEMENT_3D('',#339,#278,#279);
#236=AXIS2_PLACEMENT_3D('',#341,#280,#281);
#237=AXIS2_PLACEMENT_3D('',#342,#282,#283);
#238=AXIS2_PLACEMENT_3D('',#344,#284,#285);
#239=AXIS2_PLACEMENT_3D('',#345,#286,#287);
#240=AXIS2_PLACEMENT_3D('',#346,#288,#289);
#241=AXIS2_PLACEMENT_3D('',#347,#290,#291);
#242=AXIS2_PLACEMENT_3D('',#349,#292,#293);
#243=AXIS2_PLACEMENT_3D('',#350,#294,#295);
#244=AXIS2_PLACEMENT_3D('',#352,#296,#297);
#245=AXIS2_PLACEMENT_3D('',#353,#298,#299);
#246=DIRECTION('',(0.,0.,1.));
#247=DIRECTION('',(1.,0.,0.));
#248=DIRECTION('',(0.,0.,1.));
#249=DIRECTION('',(1.,0.,0.));
#250=DIRECTION('',(0.,0.,1.));
#251=DIRECTION('',(1.,0.,0.));
#252=DIRECTION('',(0.,0.,1.));
#253=DIRECTION('',(1.,0.,0.));
#254=DIRECTION('',(0.,0.,-1.));
#255=DIRECTION('',(-1.,0.,0.));
#256=DIRECTION('',(0.,0.,1.));
#257=DIRECTION('',(-1.,0.,0.));
#258=DIRECTION('',(0.,0.,-1.));
#259=DIRECTION('',(-1.,0.,0.));
#260=DIRECTION('',(0.,0.,-1.));
#261=DIRECTION('',(1.,0.,0.));
#262=DIRECTION('',(0.,0.,1.));
#263=DIRECTION('',(1.,0.,0.));
#264=DIRECTION('',(0.,0.,-1.));
#265=DIRECTION('',(1.,0.,0.));
#266=DIRECTION('',(0.,0.,1.));
#267=DIRECTION('',(-1.,0.,0.));
#268=DIRECTION('',(0.,0.,-1.));
#269=DIRECTION('',(-1.,0.,0.));
#270=DIRECTION('',(0.,0.,-1.));
#271=DIRECTION('',(-1.,0.,0.));
#272=DIRECTION('',(0.,0.,-1.));
#273=DIRECTION('',(1.,0.,2.15826372965178E-16));
#274=DIRECTION('',(0.,0.,-1.));
#275=DIRECTION('',(-1.,0.,0.));
#276=DIRECTION('',(0.,0.,-1.));
#277=DIRECTION('',(1.,0.,0.));
#278=DIRECTION('',(0.,0.,-1.));
#279=DIRECTION('',(-1.,0.,0.));
#280=DIRECTION('',(0.,0.,-1.));
#281=DIRECTION('',(1.,0.,0.));
#282=DIRECTION('',(0.,0.,-1.));
#283=DIRECTION('',(1.,0.,0.));
#284=DIRECTION('',(0.,0.,1.));
#285=DIRECTION('',(-1.,0.,-4.19910368812472E-17));
#286=DIRECTION('',(0.,0.,1.));
#287=DIRECTION('',(-1.,0.,0.));
#288=DIRECTION('',(0.,0.,-1.));
#289=DIRECTION('',(1.,0.,0.));
#290=DIRECTION('',(0.,0.,1.));
#291=DIRECTION('',(-1.,0.,0.));
#292=DIRECTION('',(0.,0.,-1.));
#293=DIRECTION('',(1.,0.,0.));
#294=DIRECTION('',(0.,0.,-1.));
#295=DIRECTION('',(-1.,0.,0.));
#296=DIRECTION('',(0.,0.,-1.));
#297=DIRECTION('',(1.,0.,1.59510330715535E-13));
#298=DIRECTION('',(-3.69778549322349E-32,0.,-1.));
#299=DIRECTION('',(1.,0.,0.));
#300=CARTESIAN_POINT('',(0.,0.,0.));
#301=CARTESIAN_POINT('',(0.,0.,27.779690429));
#302=CARTESIAN_POINT('',(0.,0.,0.));
#303=CARTESIAN_POINT('',(0.,0.,-22.220309571));
#304=CARTESIAN_POINT('CRP',(-0.5,0.,-22.2203));
#305=CARTESIAN_POINT('',(0.,0.,-21.220309571));
#306=CARTESIAN_POINT('',(0.,0.,-21.5536429043333));
#307=CARTESIAN_POINT('',(0.,0.,-21.8869762376667));
#308=CARTESIAN_POINT('',(3.06161699786838E-17,0.,-22.220309571));
#309=CARTESIAN_POINT('',(-0.292893218813452,0.,-22.220309571));
#310=CARTESIAN_POINT('',(-0.5,0.,-22.0132027898135));
#311=CARTESIAN_POINT('',(-0.500000000000001,0.,-21.7203095710005));
#312=CARTESIAN_POINT('',(-0.500000000000001,0.,-21.5536429036995));
#313=CARTESIAN_POINT('',(-0.499970911179061,0.,-21.3869762376673));
#314=CARTESIAN_POINT('',(-0.499956366768591,0.,-21.2203095710002));
#315=CARTESIAN_POINT('',(-0.333304244512394,0.,-21.220309571));
#316=CARTESIAN_POINT('',(-0.166652122256197,0.,-21.220309571));
#317=CARTESIAN_POINT('',(0.,0.,-21.220309571));
#318=CARTESIAN_POINT('',(0.,0.,27.779690429));
#319=CARTESIAN_POINT('',(0.,0.,0.));
#320=CARTESIAN_POINT('',(0.,0.,-22.220309571));
#321=CARTESIAN_POINT('',(0.,0.,27.779690429));
#322=CARTESIAN_POINT('',(-1.2,0.,27.779690429));
#323=CARTESIAN_POINT('',(1.2,0.,27.779690429));
#324=CARTESIAN_POINT('',(0.,0.,27.479690429));
#325=CARTESIAN_POINT('',(-1.5,0.,27.479690429));
#326=CARTESIAN_POINT('',(0.,0.,27.479690429));
#327=CARTESIAN_POINT('',(0.,0.,0.));
#328=CARTESIAN_POINT('',(1.5,0.,0.));
#329=CARTESIAN_POINT('',(0.,0.,0.));
#330=CARTESIAN_POINT('',(0.,0.,0.));
#331=CARTESIAN_POINT('',(0.,0.,-21.0787749818616));
#332=CARTESIAN_POINT('',(-0.475,0.,-21.0787749818616));
#333=CARTESIAN_POINT('',(0.,0.,-21.220309571));
#334=CARTESIAN_POINT('',(-0.499956366768591,0.,-21.220309571));
#335=CARTESIAN_POINT('',(0.,0.,-21.220309571));
#336=CARTESIAN_POINT('',(0.,0.,-4.220309571));
#337=CARTESIAN_POINT('',(-0.474999999999997,0.,-4.220309571));
#338=CARTESIAN_POINT('',(0.,0.,0.));
#339=CARTESIAN_POINT('',(0.,0.,-3.44385243569244));
#340=CARTESIAN_POINT('',(-0.577222521132791,0.,-3.44385243569244));
#341=CARTESIAN_POINT('',(0.,0.,-4.220309571));
#342=CARTESIAN_POINT('',(0.,0.,0.));
#343=CARTESIAN_POINT('',(1.5,0.,0.));
#344=CARTESIAN_POINT('',(0.,0.,-3.44385243569244));
#345=CARTESIAN_POINT('',(0.,0.,0.));
#346=CARTESIAN_POINT('',(0.,0.,-21.220309571));
#347=CARTESIAN_POINT('',(0.,0.,-21.220309571));
#348=CARTESIAN_POINT('',(-0.499956366768591,0.,-21.220309571));
#349=CARTESIAN_POINT('',(0.,0.,-21.220309571));
#350=CARTESIAN_POINT('',(0.,0.,-21.720309571));
#351=CARTESIAN_POINT('',(-0.500000000000001,0.,-21.720309571));
#352=CARTESIAN_POINT('',(0.,0.,-21.720309571));
#353=CARTESIAN_POINT('',(0.,0.,-21.720309571));
#354=MECHANICAL_DESIGN_GEOMETRIC_PRESENTATION_REPRESENTATION('',(#185,#186,
#187,#188,#189,#190,#191,#192,#193,#194,#195),#355);
#355=(
GEOMETRIC_REPRESENTATION_CONTEXT(3)
GLOBAL_UNCERTAINTY_ASSIGNED_CONTEXT((#356))
GLOBAL_UNIT_ASSIGNED_CONTEXT((#362,#358,#357))
REPRESENTATION_CONTEXT('SMB413010G7B','TOP_LEVEL_ASSEMBLY_PART')
);
#356=UNCERTAINTY_MEASURE_WITH_UNIT(LENGTH_MEASURE(2.E-5),#362,
'DISTANCE_ACCURACY_VALUE','Maximum Tolerance applied to model');
#357=(
NAMED_UNIT(*)
SI_UNIT($,.STERADIAN.)
SOLID_ANGLE_UNIT()
);
#358=(
CONVERSION_BASED_UNIT('DEGREE',#360)
NAMED_UNIT(#359)
PLANE_ANGLE_UNIT()
);
#359=DIMENSIONAL_EXPONENTS(0.,0.,0.,0.,0.,0.,0.);
#360=PLANE_ANGLE_MEASURE_WITH_UNIT(PLANE_ANGLE_MEASURE(0.0174532925),#361);
#361=(
NAMED_UNIT(*)
PLANE_ANGLE_UNIT()
SI_UNIT($,.RADIAN.)
);
#362=(
LENGTH_UNIT()
NAMED_UNIT(*)
SI_UNIT(.MILLI.,.METRE.)
);
ENDSEC;
END-ISO-10303-21;
