ISO-10303-21;
HEADER;
/* Generated by software containing ST-Developer
 * from STEP Tools, Inc. (www.steptools.com) 
 */
/* OPTION: using custom schema-name function */

FILE_DESCRIPTION(
/* description */ (''),
/* implementation_level */ '2;1');

FILE_NAME(
/* name */ 'SME714020G5R010.0Z3_Basic.stp',
/* time_stamp */ '2021-10-20T17:08:39+06:00',
/* author */ (''),
/* organization */ (''),
/* preprocessor_version */ 'ST-DEVELOPER v16.7',
/* originating_system */ 'SIEMENS PLM Software NX 12.0',
/* authorisation */ '');

FILE_SCHEMA (('AUTOMOTIVE_DESIGN { 1 0 10303 214 3 1 1 1 }'));
ENDSEC;

DATA;
#10=CONSTRUCTIVE_GEOMETRY_REPRESENTATION_RELATIONSHIP(
'supplemental geometry','',#26,#11);
#11=CONSTRUCTIVE_GEOMETRY_REPRESENTATION('supplemental geometry',(#204,
#205,#206),#339);
#12=GEOMETRICALLY_BOUNDED_WIREFRAME_SHAPE_REPRESENTATION(
'SME714020G5R010.0Z3_Basic-None',(#27),#339);
#13=SHAPE_REPRESENTATION_RELATIONSHIP('None',
'relationship between SME714020G5R010.0Z3_Basic-None and SME714020G5R0
10.0Z3_Basic-None',#26,#15);
#14=SHAPE_REPRESENTATION_RELATIONSHIP('None',
'relationship between SME714020G5R010.0Z3_Basic-None and SME714020G5R0
10.0Z3_Basic-None',#26,#12);
#15=ADVANCED_BREP_SHAPE_REPRESENTATION('SME714020G5R010.0Z3_Basic-None',
(#40,#41),#339);
#16=SHAPE_DEFINITION_REPRESENTATION(#17,#26);
#17=PRODUCT_DEFINITION_SHAPE('','',#18);
#18=PRODUCT_DEFINITION(' ','',#20,#19);
#19=PRODUCT_DEFINITION_CONTEXT('part definition',#25,'design');
#20=PRODUCT_DEFINITION_FORMATION_WITH_SPECIFIED_SOURCE(' ',' ',#22,
 .NOT_KNOWN.);
#21=PRODUCT_RELATED_PRODUCT_CATEGORY('part','',(#22));
#22=PRODUCT('SME714020G5R010.0Z3_Basic','SME714020G5R010.0Z3_Basic',' ',
(#23));
#23=PRODUCT_CONTEXT(' ',#25,'mechanical');
#24=APPLICATION_PROTOCOL_DEFINITION('international standard',
'automotive_design',2010,#25);
#25=APPLICATION_CONTEXT(
'core data for automotive mechanical design processes');
#26=SHAPE_REPRESENTATION('SME714020G5R010.0Z3_Basic-None',(#203),#339);
#27=GEOMETRIC_CURVE_SET('None',(#282,#283,#284,#285,#168));
#28=CYLINDRICAL_SURFACE('',#219,2.);
#29=CYLINDRICAL_SURFACE('',#224,0.949999999999998);
#30=SURFACE_STYLE_USAGE(.BOTH.,#32);
#31=SURFACE_STYLE_USAGE(.BOTH.,#33);
#32=SURFACE_SIDE_STYLE('',(#34));
#33=SURFACE_SIDE_STYLE('',(#35));
#34=SURFACE_STYLE_FILL_AREA(#36);
#35=SURFACE_STYLE_FILL_AREA(#37);
#36=FILL_AREA_STYLE('',(#38));
#37=FILL_AREA_STYLE('',(#39));
#38=FILL_AREA_STYLE_COLOUR('',#201);
#39=FILL_AREA_STYLE_COLOUR('',#202);
#40=MANIFOLD_SOLID_BREP('CUT',#42);
#41=MANIFOLD_SOLID_BREP('NOCUT',#43);
#42=CLOSED_SHELL('',(#52,#53,#54,#55));
#43=CLOSED_SHELL('',(#56,#57,#58,#59,#60,#61,#62,#63));
#44=PLANE('',#213);
#45=PLANE('',#215);
#46=PLANE('',#228);
#47=FACE_OUTER_BOUND('',#93,.T.);
#48=FACE_OUTER_BOUND('',#94,.T.);
#49=FACE_OUTER_BOUND('',#107,.T.);
#50=TOROIDAL_SURFACE('',#210,0.900000000000001,0.100000000000001);
#51=TOROIDAL_SURFACE('',#226,3.95,3.);
#52=ADVANCED_FACE('',(#70,#71),#64,.F.);
#53=ADVANCED_FACE('',(#72,#73),#50,.T.);
#54=ADVANCED_FACE('',(#74,#75),#65,.T.);
#55=ADVANCED_FACE('',(#47),#44,.F.);
#56=ADVANCED_FACE('',(#48),#45,.T.);
#57=ADVANCED_FACE('',(#76,#77),#66,.T.);
#58=ADVANCED_FACE('',(#78,#79),#28,.T.);
#59=ADVANCED_FACE('',(#80,#81),#67,.T.);
#60=ADVANCED_FACE('',(#82,#83),#29,.T.);
#61=ADVANCED_FACE('',(#84,#85),#51,.F.);
#62=ADVANCED_FACE('',(#86,#87),#68,.T.);
#63=ADVANCED_FACE('',(#49),#46,.T.);
#64=CONICAL_SURFACE('',#208,1.88737914186277E-15,87.);
#65=CONICAL_SURFACE('',#212,0.999999999619231,0.00500000000005154);
#66=CONICAL_SURFACE('',#217,2.,45.0000000000002);
#67=CONICAL_SURFACE('',#222,0.999790560870001,10.0000000000002);
#68=CONICAL_SURFACE('',#227,1.05222252113279,15.);
#69=VERTEX_LOOP('',#129);
#70=FACE_BOUND('',#88,.T.);
#71=FACE_BOUND('',#69,.T.);
#72=FACE_BOUND('',#89,.T.);
#73=FACE_BOUND('',#90,.T.);
#74=FACE_BOUND('',#91,.T.);
#75=FACE_BOUND('',#92,.T.);
#76=FACE_BOUND('',#95,.T.);
#77=FACE_BOUND('',#96,.T.);
#78=FACE_BOUND('',#97,.T.);
#79=FACE_BOUND('',#98,.T.);
#80=FACE_BOUND('',#99,.T.);
#81=FACE_BOUND('',#100,.T.);
#82=FACE_BOUND('',#101,.T.);
#83=FACE_BOUND('',#102,.T.);
#84=FACE_BOUND('',#103,.T.);
#85=FACE_BOUND('',#104,.T.);
#86=FACE_BOUND('',#105,.T.);
#87=FACE_BOUND('',#106,.T.);
#88=EDGE_LOOP('',(#108));
#89=EDGE_LOOP('',(#109));
#90=EDGE_LOOP('',(#110));
#91=EDGE_LOOP('',(#111));
#92=EDGE_LOOP('',(#112));
#93=EDGE_LOOP('',(#113));
#94=EDGE_LOOP('',(#114));
#95=EDGE_LOOP('',(#115));
#96=EDGE_LOOP('',(#116));
#97=EDGE_LOOP('',(#117));
#98=EDGE_LOOP('',(#118));
#99=EDGE_LOOP('',(#119));
#100=EDGE_LOOP('',(#120));
#101=EDGE_LOOP('',(#121));
#102=EDGE_LOOP('',(#122));
#103=EDGE_LOOP('',(#123));
#104=EDGE_LOOP('',(#124));
#105=EDGE_LOOP('',(#125));
#106=EDGE_LOOP('',(#126));
#107=EDGE_LOOP('',(#127));
#108=ORIENTED_EDGE('',*,*,#139,.T.);
#109=ORIENTED_EDGE('',*,*,#140,.T.);
#110=ORIENTED_EDGE('',*,*,#139,.F.);
#111=ORIENTED_EDGE('',*,*,#141,.F.);
#112=ORIENTED_EDGE('',*,*,#140,.F.);
#113=ORIENTED_EDGE('',*,*,#141,.T.);
#114=ORIENTED_EDGE('',*,*,#142,.F.);
#115=ORIENTED_EDGE('',*,*,#142,.T.);
#116=ORIENTED_EDGE('',*,*,#143,.F.);
#117=ORIENTED_EDGE('',*,*,#143,.T.);
#118=ORIENTED_EDGE('',*,*,#144,.F.);
#119=ORIENTED_EDGE('',*,*,#145,.T.);
#120=ORIENTED_EDGE('',*,*,#146,.F.);
#121=ORIENTED_EDGE('',*,*,#147,.T.);
#122=ORIENTED_EDGE('',*,*,#145,.F.);
#123=ORIENTED_EDGE('',*,*,#148,.T.);
#124=ORIENTED_EDGE('',*,*,#147,.F.);
#125=ORIENTED_EDGE('',*,*,#144,.T.);
#126=ORIENTED_EDGE('',*,*,#148,.F.);
#127=ORIENTED_EDGE('',*,*,#146,.T.);
#128=VERTEX_POINT('',#306);
#129=VERTEX_POINT('',#307);
#130=VERTEX_POINT('',#310);
#131=VERTEX_POINT('',#313);
#132=VERTEX_POINT('',#317);
#133=VERTEX_POINT('',#320);
#134=VERTEX_POINT('',#323);
#135=VERTEX_POINT('',#326);
#136=VERTEX_POINT('',#328);
#137=VERTEX_POINT('',#331);
#138=VERTEX_POINT('',#334);
#139=EDGE_CURVE('',#128,#128,#149,.T.);
#140=EDGE_CURVE('',#130,#130,#150,.T.);
#141=EDGE_CURVE('',#131,#131,#151,.T.);
#142=EDGE_CURVE('',#132,#132,#152,.T.);
#143=EDGE_CURVE('',#133,#133,#153,.T.);
#144=EDGE_CURVE('',#134,#134,#154,.T.);
#145=EDGE_CURVE('',#135,#135,#155,.T.);
#146=EDGE_CURVE('',#136,#136,#156,.T.);
#147=EDGE_CURVE('',#137,#137,#157,.T.);
#148=EDGE_CURVE('',#138,#138,#158,.T.);
#149=CIRCLE('',#207,0.894766404375707);
#150=CIRCLE('',#209,0.999999999619231);
#151=CIRCLE('',#211,0.999790560870001);
#152=CIRCLE('',#214,1.5);
#153=CIRCLE('',#216,2.);
#154=CIRCLE('',#218,2.);
#155=CIRCLE('',#220,0.949999999999999);
#156=CIRCLE('',#221,0.999790560870001);
#157=CIRCLE('',#223,0.949999999999998);
#158=CIRCLE('',#225,1.05222252113279);
#159=CURVE_STYLE('',#164,POSITIVE_LENGTH_MEASURE(0.18),#163);
#160=CURVE_STYLE('',#165,POSITIVE_LENGTH_MEASURE(0.18),#199);
#161=CURVE_STYLE('',#166,POSITIVE_LENGTH_MEASURE(0.18),#199);
#162=CURVE_STYLE('',#167,POSITIVE_LENGTH_MEASURE(0.18),#199);
#163=DRAUGHTING_PRE_DEFINED_COLOUR('blue');
#164=DRAUGHTING_PRE_DEFINED_CURVE_FONT('continuous');
#165=DRAUGHTING_PRE_DEFINED_CURVE_FONT('continuous');
#166=DRAUGHTING_PRE_DEFINED_CURVE_FONT('continuous');
#167=DRAUGHTING_PRE_DEFINED_CURVE_FONT('continuous');
#168=TRIMMED_CURVE('CUTTING PART LINE',#169,(PARAMETER_VALUE(0.)),(
PARAMETER_VALUE(1.)),.T.,.PARAMETER.);
#169=(
BOUNDED_CURVE()
B_SPLINE_CURVE(3,(#286,#287,#288,#289,#290,#291,#292,#293,#294,#295,#296,
#297,#298,#299,#300,#301),.UNSPECIFIED.,.T.,.F.)
B_SPLINE_CURVE_WITH_KNOTS((4,3,3,3,3,4),(0.,0.347267647352414,0.370755230204938,
0.500401469540341,0.855334926238995,1.),.UNSPECIFIED.)
CURVE()
GEOMETRIC_REPRESENTATION_ITEM()
RATIONAL_B_SPLINE_CURVE((1.,1.,1.,1.,0.792215283073739,0.792215283073739,
1.,1.,1.,1.,1.,1.,1.,1.,1.,1.))
REPRESENTATION_ITEM('CUTTING PART LINE')
);
#170=PRESENTATION_LAYER_ASSIGNMENT('1','Layer 1',(#282,#283,#284,#285,#168,
#204,#205,#206,#40,#41));
#171=STYLED_ITEM('',(#181),#282);
#172=STYLED_ITEM('',(#182),#283);
#173=STYLED_ITEM('',(#183),#284);
#174=STYLED_ITEM('',(#184),#285);
#175=STYLED_ITEM('',(#185),#168);
#176=STYLED_ITEM('',(#186),#204);
#177=STYLED_ITEM('',(#187),#205);
#178=STYLED_ITEM('',(#188),#206);
#179=STYLED_ITEM('',(#189),#40);
#180=STYLED_ITEM('',(#190),#41);
#181=PRESENTATION_STYLE_ASSIGNMENT((#191));
#182=PRESENTATION_STYLE_ASSIGNMENT((#192));
#183=PRESENTATION_STYLE_ASSIGNMENT((#193));
#184=PRESENTATION_STYLE_ASSIGNMENT((#194));
#185=PRESENTATION_STYLE_ASSIGNMENT((#159));
#186=PRESENTATION_STYLE_ASSIGNMENT((#160));
#187=PRESENTATION_STYLE_ASSIGNMENT((#161));
#188=PRESENTATION_STYLE_ASSIGNMENT((#162));
#189=PRESENTATION_STYLE_ASSIGNMENT((#30));
#190=PRESENTATION_STYLE_ASSIGNMENT((#31));
#191=POINT_STYLE('',#195,POSITIVE_LENGTH_MEASURE(3.),#199);
#192=POINT_STYLE('',#196,POSITIVE_LENGTH_MEASURE(3.),#199);
#193=POINT_STYLE('',#197,POSITIVE_LENGTH_MEASURE(3.),#199);
#194=POINT_STYLE('',#198,POSITIVE_LENGTH_MEASURE(3.),#200);
#195=PRE_DEFINED_POINT_MARKER_SYMBOL('plus');
#196=PRE_DEFINED_POINT_MARKER_SYMBOL('plus');
#197=PRE_DEFINED_POINT_MARKER_SYMBOL('plus');
#198=PRE_DEFINED_POINT_MARKER_SYMBOL('plus');
#199=COLOUR_RGB('Pale Maroon',0.811749446860456,0.603921568627451,0.611749446860456);
#200=COLOUR_RGB('Medium Royal',0.2,0.4,0.8);
#201=COLOUR_RGB('Light Gray',0.8,0.8,0.8);
#202=COLOUR_RGB('Medium Gray',0.490196078431373,0.490196078431373,0.490196078431373);
#203=AXIS2_PLACEMENT_3D('',#281,#229,#230);
#204=AXIS2_PLACEMENT_3D('PCS',#302,#231,#232);
#205=AXIS2_PLACEMENT_3D('MCS',#303,#233,#234);
#206=AXIS2_PLACEMENT_3D('CIP',#304,#235,#236);
#207=AXIS2_PLACEMENT_3D('',#305,#237,#238);
#208=AXIS2_PLACEMENT_3D('',#308,#239,#240);
#209=AXIS2_PLACEMENT_3D('',#309,#241,#242);
#210=AXIS2_PLACEMENT_3D('',#311,#243,#244);
#211=AXIS2_PLACEMENT_3D('',#312,#245,#246);
#212=AXIS2_PLACEMENT_3D('',#314,#247,#248);
#213=AXIS2_PLACEMENT_3D('',#315,#249,#250);
#214=AXIS2_PLACEMENT_3D('',#316,#251,#252);
#215=AXIS2_PLACEMENT_3D('',#318,#253,#254);
#216=AXIS2_PLACEMENT_3D('',#319,#255,#256);
#217=AXIS2_PLACEMENT_3D('',#321,#257,#258);
#218=AXIS2_PLACEMENT_3D('',#322,#259,#260);
#219=AXIS2_PLACEMENT_3D('',#324,#261,#262);
#220=AXIS2_PLACEMENT_3D('',#325,#263,#264);
#221=AXIS2_PLACEMENT_3D('',#327,#265,#266);
#222=AXIS2_PLACEMENT_3D('',#329,#267,#268);
#223=AXIS2_PLACEMENT_3D('',#330,#269,#270);
#224=AXIS2_PLACEMENT_3D('',#332,#271,#272);
#225=AXIS2_PLACEMENT_3D('',#333,#273,#274);
#226=AXIS2_PLACEMENT_3D('',#335,#275,#276);
#227=AXIS2_PLACEMENT_3D('',#336,#277,#278);
#228=AXIS2_PLACEMENT_3D('',#337,#279,#280);
#229=DIRECTION('',(0.,0.,1.));
#230=DIRECTION('',(1.,0.,0.));
#231=DIRECTION('',(0.,0.,1.));
#232=DIRECTION('',(1.,0.,0.));
#233=DIRECTION('',(0.,0.,1.));
#234=DIRECTION('',(1.,0.,0.));
#235=DIRECTION('',(0.,0.,1.));
#236=DIRECTION('',(1.,0.,0.));
#237=DIRECTION('',(0.,0.,-1.));
#238=DIRECTION('',(-1.,0.,0.));
#239=DIRECTION('',(0.,0.,-1.));
#240=DIRECTION('',(1.,0.,2.54556414129088E-18));
#241=DIRECTION('',(0.,0.,-1.));
#242=DIRECTION('',(-1.,0.,0.));
#243=DIRECTION('',(0.,0.,-1.));
#244=DIRECTION('',(1.,0.,0.));
#245=DIRECTION('',(0.,0.,1.));
#246=DIRECTION('',(-1.,0.,0.));
#247=DIRECTION('',(0.,0.,-1.));
#248=DIRECTION('',(1.,0.,-3.51007943221165E-14));
#249=DIRECTION('',(0.,0.,-1.));
#250=DIRECTION('',(1.,0.,0.));
#251=DIRECTION('',(0.,0.,-1.));
#252=DIRECTION('',(-1.,0.,0.));
#253=DIRECTION('',(0.,0.,1.));
#254=DIRECTION('',(-1.,0.,0.));
#255=DIRECTION('',(0.,0.,-1.));
#256=DIRECTION('',(-1.,0.,0.));
#257=DIRECTION('',(0.,0.,-1.));
#258=DIRECTION('',(1.,0.,-3.11626971732358E-17));
#259=DIRECTION('',(0.,0.,-1.));
#260=DIRECTION('',(-1.,0.,0.));
#261=DIRECTION('',(0.,0.,-1.));
#262=DIRECTION('',(1.,0.,0.));
#263=DIRECTION('',(0.,0.,-1.));
#264=DIRECTION('',(-1.,0.,0.));
#265=DIRECTION('',(0.,0.,-1.));
#266=DIRECTION('',(-1.,0.,0.));
#267=DIRECTION('',(0.,0.,-1.));
#268=DIRECTION('',(1.,0.,-4.10870764010938E-16));
#269=DIRECTION('',(0.,0.,-1.));
#270=DIRECTION('',(-1.,0.,0.));
#271=DIRECTION('',(0.,0.,-1.));
#272=DIRECTION('',(1.,0.,0.));
#273=DIRECTION('',(0.,0.,-1.));
#274=DIRECTION('',(-1.,0.,0.));
#275=DIRECTION('',(0.,0.,-1.));
#276=DIRECTION('',(1.,0.,0.));
#277=DIRECTION('',(0.,0.,1.));
#278=DIRECTION('',(-1.,0.,1.51545677529951E-16));
#279=DIRECTION('',(0.,0.,-1.));
#280=DIRECTION('',(1.,0.,0.));
#281=CARTESIAN_POINT('',(0.,0.,0.));
#282=CARTESIAN_POINT('',(0.,0.,28.));
#283=CARTESIAN_POINT('',(0.,0.,0.));
#284=CARTESIAN_POINT('',(0.,0.,-22.));
#285=CARTESIAN_POINT('CRP',(-1.,0.,-22.));
#286=CARTESIAN_POINT('',(-0.999790560870002,0.,-19.5000000000007));
#287=CARTESIAN_POINT('',(-0.999860373786411,0.,-20.2999970911192));
#288=CARTESIAN_POINT('',(-0.999930186702821,0.,-21.0999941822377));
#289=CARTESIAN_POINT('',(-0.999999999619231,0.,-21.8999912733549));
#290=CARTESIAN_POINT('',(-1.00000532674665,0.,-21.9610356568012));
#291=CARTESIAN_POINT('',(-0.95572712884942,0.,-22.0030577696686));
#292=CARTESIAN_POINT('',(-0.894766404375708,0.,-21.9998629534755));
#293=CARTESIAN_POINT('',(-0.596510936250468,0.,-21.9842320467321));
#294=CARTESIAN_POINT('',(-0.298255468125237,0.,-21.9686011399886));
#295=CARTESIAN_POINT('',(-9.43689570931383E-16,0.,-21.9529702332451));
#296=CARTESIAN_POINT('',(0.,0.,-21.1353134888301));
#297=CARTESIAN_POINT('',(0.,0.,-20.317656744415));
#298=CARTESIAN_POINT('',(0.,0.,-19.5));
#299=CARTESIAN_POINT('',(-0.33326352029,0.,-19.5));
#300=CARTESIAN_POINT('',(-0.666527040580001,0.,-19.5));
#301=CARTESIAN_POINT('',(-0.999790560870001,0.,-19.5));
#302=CARTESIAN_POINT('',(0.,0.,28.));
#303=CARTESIAN_POINT('',(0.,0.,0.));
#304=CARTESIAN_POINT('',(0.,0.,-22.));
#305=CARTESIAN_POINT('',(0.,0.,-21.9998629534755));
#306=CARTESIAN_POINT('',(-0.894766404375707,0.,-21.9998629534755));
#307=CARTESIAN_POINT('',(-1.88737914186277E-15,0.,-21.9529702332451));
#308=CARTESIAN_POINT('',(0.,0.,-21.9529702332451));
#309=CARTESIAN_POINT('',(0.,0.,-21.8999912733537));
#310=CARTESIAN_POINT('',(-0.999999999619231,0.,-21.8999912733537));
#311=CARTESIAN_POINT('',(0.,0.,-21.9));
#312=CARTESIAN_POINT('',(0.,0.,-19.5));
#313=CARTESIAN_POINT('',(-0.999790560870001,0.,-19.5));
#314=CARTESIAN_POINT('',(0.,0.,-21.8999912733537));
#315=CARTESIAN_POINT('',(0.,0.,-19.5));
#316=CARTESIAN_POINT('',(0.,0.,28.));
#317=CARTESIAN_POINT('',(-1.5,0.,28.));
#318=CARTESIAN_POINT('',(1.5,0.,28.));
#319=CARTESIAN_POINT('',(0.,0.,27.5));
#320=CARTESIAN_POINT('',(-2.,0.,27.5));
#321=CARTESIAN_POINT('',(0.,0.,27.5));
#322=CARTESIAN_POINT('',(0.,0.,-1.68638915929046));
#323=CARTESIAN_POINT('',(-2.,0.,-1.68638915929046));
#324=CARTESIAN_POINT('',(0.,0.,0.));
#325=CARTESIAN_POINT('',(0.,0.,-19.2176236973494));
#326=CARTESIAN_POINT('',(-0.949999999999999,0.,-19.2176236973494));
#327=CARTESIAN_POINT('',(0.,0.,-19.5));
#328=CARTESIAN_POINT('',(-0.999790560870001,0.,-19.5));
#329=CARTESIAN_POINT('',(0.,0.,-19.5));
#330=CARTESIAN_POINT('',(0.,0.,-6.));
#331=CARTESIAN_POINT('',(-0.949999999999998,0.,-6.));
#332=CARTESIAN_POINT('',(0.,0.,0.));
#333=CARTESIAN_POINT('',(0.,0.,-5.22354286469244));
#334=CARTESIAN_POINT('',(-1.05222252113279,0.,-5.22354286469244));
#335=CARTESIAN_POINT('',(0.,0.,-6.));
#336=CARTESIAN_POINT('',(0.,0.,-5.22354286469244));
#337=CARTESIAN_POINT('',(0.,0.,-19.5));
#338=MECHANICAL_DESIGN_GEOMETRIC_PRESENTATION_REPRESENTATION('',(#171,#172,
#173,#174,#175,#176,#177,#178,#179,#180),#339);
#339=(
GEOMETRIC_REPRESENTATION_CONTEXT(3)
GLOBAL_UNCERTAINTY_ASSIGNED_CONTEXT((#340))
GLOBAL_UNIT_ASSIGNED_CONTEXT((#346,#342,#341))
REPRESENTATION_CONTEXT('SME714020G5R010','TOP_LEVEL_ASSEMBLY_PART')
);
#340=UNCERTAINTY_MEASURE_WITH_UNIT(LENGTH_MEASURE(2.E-5),#346,
'DISTANCE_ACCURACY_VALUE','Maximum Tolerance applied to model');
#341=(
NAMED_UNIT(*)
SI_UNIT($,.STERADIAN.)
SOLID_ANGLE_UNIT()
);
#342=(
CONVERSION_BASED_UNIT('DEGREE',#344)
NAMED_UNIT(#343)
PLANE_ANGLE_UNIT()
);
#343=DIMENSIONAL_EXPONENTS(0.,0.,0.,0.,0.,0.,0.);
#344=PLANE_ANGLE_MEASURE_WITH_UNIT(PLANE_ANGLE_MEASURE(0.0174532925),#345);
#345=(
NAMED_UNIT(*)
PLANE_ANGLE_UNIT()
SI_UNIT($,.RADIAN.)
);
#346=(
LENGTH_UNIT()
NAMED_UNIT(*)
SI_UNIT(.MILLI.,.METRE.)
);
ENDSEC;
END-ISO-10303-21;
