ISO-10303-21;
HEADER;
/* Generated by software containing ST-Developer
 * from STEP Tools, Inc. (www.steptools.com) 
 */
/* OPTION: using custom schema-name function */

FILE_DESCRIPTION(
/* description */ (''),
/* implementation_level */ '2;1');

FILE_NAME(
/* name */ 'SME714020G1S.0Z3_Basic.stp',
/* time_stamp */ '2021-10-06T12:27:56+06:00',
/* author */ (''),
/* organization */ (''),
/* preprocessor_version */ 'ST-DEVELOPER v16.7',
/* originating_system */ 'SIEMENS PLM Software NX 12.0',
/* authorisation */ '');

FILE_SCHEMA (('AUTOMOTIVE_DESIGN { 1 0 10303 214 3 1 1 1 }'));
ENDSEC;

DATA;
#10=CONSTRUCTIVE_GEOMETRY_REPRESENTATION_RELATIONSHIP(
'supplemental geometry','',#34,#11);
#11=CONSTRUCTIVE_GEOMETRY_REPRESENTATION('supplemental geometry',(#233,
#234,#235),#378);
#12=GEOMETRICALLY_BOUNDED_WIREFRAME_SHAPE_REPRESENTATION(
'SME714020G1S.0Z3_Basic-None',(#35),#378);
#13=PROPERTY_DEFINITION_REPRESENTATION(#17,#15);
#14=PROPERTY_DEFINITION_REPRESENTATION(#18,#16);
#15=REPRESENTATION('',(#19),#378);
#16=REPRESENTATION('',(#20),#378);
#17=PROPERTY_DEFINITION('pmi validation property','',#25);
#18=PROPERTY_DEFINITION('pmi validation property','',#25);
#19=VALUE_REPRESENTATION_ITEM('number of annotations',COUNT_MEASURE(0.));
#20=VALUE_REPRESENTATION_ITEM('number of views',COUNT_MEASURE(0.));
#21=SHAPE_REPRESENTATION_RELATIONSHIP('None',
'relationship between SME714020G1S.0Z3_Basic-None and SME714020G1S.0Z3
_Basic-None',#34,#23);
#22=SHAPE_REPRESENTATION_RELATIONSHIP('None',
'relationship between SME714020G1S.0Z3_Basic-None and SME714020G1S.0Z3
_Basic-None',#34,#12);
#23=ADVANCED_BREP_SHAPE_REPRESENTATION('SME714020G1S.0Z3_Basic-None',(#53,
#54,#55),#378);
#24=SHAPE_DEFINITION_REPRESENTATION(#25,#34);
#25=PRODUCT_DEFINITION_SHAPE('','',#26);
#26=PRODUCT_DEFINITION(' ','',#28,#27);
#27=PRODUCT_DEFINITION_CONTEXT('part definition',#33,'design');
#28=PRODUCT_DEFINITION_FORMATION_WITH_SPECIFIED_SOURCE(' ',' ',#30,
 .NOT_KNOWN.);
#29=PRODUCT_RELATED_PRODUCT_CATEGORY('part','',(#30));
#30=PRODUCT('INPU4BCC9AA0jmke','INPU4BCC9AA0jmke',' ',(#31));
#31=PRODUCT_CONTEXT(' ',#33,'mechanical');
#32=APPLICATION_PROTOCOL_DEFINITION('international standard',
'automotive_design',2010,#33);
#33=APPLICATION_CONTEXT(
'core data for automotive mechanical design processes');
#34=SHAPE_REPRESENTATION('SME714020G1S.0Z3_Basic-None',(#232),#378);
#35=GEOMETRIC_CURVE_SET('None',(#320,#321,#322,#323,#196));
#36=VERTEX_LOOP('',#163);
#37=TOROIDAL_SURFACE('',#252,3.95,3.);
#38=SURFACE_STYLE_USAGE(.BOTH.,#41);
#39=SURFACE_STYLE_USAGE(.BOTH.,#42);
#40=SURFACE_STYLE_USAGE(.BOTH.,#43);
#41=SURFACE_SIDE_STYLE('',(#44));
#42=SURFACE_SIDE_STYLE('',(#45));
#43=SURFACE_SIDE_STYLE('',(#46));
#44=SURFACE_STYLE_FILL_AREA(#47);
#45=SURFACE_STYLE_FILL_AREA(#48);
#46=SURFACE_STYLE_FILL_AREA(#49);
#47=FILL_AREA_STYLE('',(#50));
#48=FILL_AREA_STYLE('',(#51));
#49=FILL_AREA_STYLE('',(#52));
#50=FILL_AREA_STYLE_COLOUR('',#230);
#51=FILL_AREA_STYLE_COLOUR('',#230);
#52=FILL_AREA_STYLE_COLOUR('',#231);
#53=MANIFOLD_SOLID_BREP('NOCUT',#56);
#54=MANIFOLD_SOLID_BREP('NOCUT',#57);
#55=MANIFOLD_SOLID_BREP('CUT',#58);
#56=CLOSED_SHELL('',(#85,#86,#87,#88));
#57=CLOSED_SHELL('',(#89,#90,#91,#92,#93,#94,#95));
#58=CLOSED_SHELL('',(#96,#97,#98));
#59=CYLINDRICAL_SURFACE('',#241,2.);
#60=CYLINDRICAL_SURFACE('',#245,2.);
#61=CYLINDRICAL_SURFACE('',#250,0.949999999999999);
#62=CONICAL_SURFACE('',#239,2.,45.0000000000002);
#63=CONICAL_SURFACE('',#248,0.999825467074362,10.0000000000001);
#64=CONICAL_SURFACE('',#253,1.05222252113279,15.);
#65=CONICAL_SURFACE('',#257,1.66533453693773E-15,88.0000000000001);
#66=CONICAL_SURFACE('',#259,1.,0.00500000000000214);
#67=FACE_BOUND('',#110,.T.);
#68=FACE_BOUND('',#111,.T.);
#69=FACE_BOUND('',#112,.T.);
#70=FACE_BOUND('',#113,.T.);
#71=FACE_BOUND('',#115,.T.);
#72=FACE_BOUND('',#116,.T.);
#73=FACE_BOUND('',#117,.T.);
#74=FACE_BOUND('',#118,.T.);
#75=FACE_BOUND('',#119,.T.);
#76=FACE_BOUND('',#120,.T.);
#77=FACE_BOUND('',#121,.T.);
#78=FACE_BOUND('',#122,.T.);
#79=FACE_BOUND('',#123,.T.);
#80=FACE_BOUND('',#124,.T.);
#81=FACE_BOUND('',#127,.T.);
#82=FACE_BOUND('',#36,.T.);
#83=FACE_BOUND('',#128,.T.);
#84=FACE_BOUND('',#129,.T.);
#85=ADVANCED_FACE('',(#104),#99,.T.);
#86=ADVANCED_FACE('',(#67,#68),#62,.T.);
#87=ADVANCED_FACE('',(#69,#70),#59,.T.);
#88=ADVANCED_FACE('',(#105),#100,.F.);
#89=ADVANCED_FACE('',(#71,#72),#60,.T.);
#90=ADVANCED_FACE('',(#73,#74),#63,.T.);
#91=ADVANCED_FACE('',(#75,#76),#61,.T.);
#92=ADVANCED_FACE('',(#77,#78),#37,.F.);
#93=ADVANCED_FACE('',(#79,#80),#64,.T.);
#94=ADVANCED_FACE('',(#106),#101,.T.);
#95=ADVANCED_FACE('',(#107),#102,.T.);
#96=ADVANCED_FACE('',(#81,#82),#65,.F.);
#97=ADVANCED_FACE('',(#83,#84),#66,.T.);
#98=ADVANCED_FACE('',(#108),#103,.F.);
#99=PLANE('',#237);
#100=PLANE('',#242);
#101=PLANE('',#254);
#102=PLANE('',#255);
#103=PLANE('',#260);
#104=FACE_OUTER_BOUND('',#109,.T.);
#105=FACE_OUTER_BOUND('',#114,.T.);
#106=FACE_OUTER_BOUND('',#125,.T.);
#107=FACE_OUTER_BOUND('',#126,.T.);
#108=FACE_OUTER_BOUND('',#130,.T.);
#109=EDGE_LOOP('',(#131));
#110=EDGE_LOOP('',(#132));
#111=EDGE_LOOP('',(#133));
#112=EDGE_LOOP('',(#134));
#113=EDGE_LOOP('',(#135));
#114=EDGE_LOOP('',(#136));
#115=EDGE_LOOP('',(#137));
#116=EDGE_LOOP('',(#138));
#117=EDGE_LOOP('',(#139));
#118=EDGE_LOOP('',(#140));
#119=EDGE_LOOP('',(#141));
#120=EDGE_LOOP('',(#142));
#121=EDGE_LOOP('',(#143));
#122=EDGE_LOOP('',(#144));
#123=EDGE_LOOP('',(#145));
#124=EDGE_LOOP('',(#146));
#125=EDGE_LOOP('',(#147));
#126=EDGE_LOOP('',(#148));
#127=EDGE_LOOP('',(#149));
#128=EDGE_LOOP('',(#150));
#129=EDGE_LOOP('',(#151));
#130=EDGE_LOOP('',(#152));
#131=ORIENTED_EDGE('',*,*,#165,.F.);
#132=ORIENTED_EDGE('',*,*,#165,.T.);
#133=ORIENTED_EDGE('',*,*,#166,.F.);
#134=ORIENTED_EDGE('',*,*,#167,.T.);
#135=ORIENTED_EDGE('',*,*,#166,.T.);
#136=ORIENTED_EDGE('',*,*,#167,.F.);
#137=ORIENTED_EDGE('',*,*,#168,.F.);
#138=ORIENTED_EDGE('',*,*,#169,.T.);
#139=ORIENTED_EDGE('',*,*,#170,.T.);
#140=ORIENTED_EDGE('',*,*,#171,.F.);
#141=ORIENTED_EDGE('',*,*,#172,.T.);
#142=ORIENTED_EDGE('',*,*,#170,.F.);
#143=ORIENTED_EDGE('',*,*,#173,.T.);
#144=ORIENTED_EDGE('',*,*,#172,.F.);
#145=ORIENTED_EDGE('',*,*,#168,.T.);
#146=ORIENTED_EDGE('',*,*,#173,.F.);
#147=ORIENTED_EDGE('',*,*,#169,.F.);
#148=ORIENTED_EDGE('',*,*,#171,.T.);
#149=ORIENTED_EDGE('',*,*,#174,.T.);
#150=ORIENTED_EDGE('',*,*,#175,.F.);
#151=ORIENTED_EDGE('',*,*,#174,.F.);
#152=ORIENTED_EDGE('',*,*,#175,.T.);
#153=VERTEX_POINT('',#341);
#154=VERTEX_POINT('',#344);
#155=VERTEX_POINT('',#347);
#156=VERTEX_POINT('',#351);
#157=VERTEX_POINT('',#353);
#158=VERTEX_POINT('',#356);
#159=VERTEX_POINT('',#358);
#160=VERTEX_POINT('',#361);
#161=VERTEX_POINT('',#364);
#162=VERTEX_POINT('',#370);
#163=VERTEX_POINT('',#371);
#164=VERTEX_POINT('',#374);
#165=EDGE_CURVE('',#153,#153,#176,.T.);
#166=EDGE_CURVE('',#154,#154,#177,.T.);
#167=EDGE_CURVE('',#155,#155,#178,.T.);
#168=EDGE_CURVE('',#156,#156,#179,.T.);
#169=EDGE_CURVE('',#157,#157,#180,.T.);
#170=EDGE_CURVE('',#158,#158,#181,.T.);
#171=EDGE_CURVE('',#159,#159,#182,.T.);
#172=EDGE_CURVE('',#160,#160,#183,.T.);
#173=EDGE_CURVE('',#161,#161,#184,.T.);
#174=EDGE_CURVE('',#162,#162,#185,.T.);
#175=EDGE_CURVE('',#164,#164,#186,.T.);
#176=CIRCLE('',#236,1.5);
#177=CIRCLE('',#238,2.);
#178=CIRCLE('',#240,2.);
#179=CIRCLE('',#243,2.00000000000001);
#180=CIRCLE('',#244,2.);
#181=CIRCLE('',#246,0.949999999999999);
#182=CIRCLE('',#247,0.999825467074362);
#183=CIRCLE('',#249,0.949999999999999);
#184=CIRCLE('',#251,1.05222252113279);
#185=CIRCLE('',#256,1.);
#186=CIRCLE('',#258,0.999825467074362);
#187=CURVE_STYLE('',#192,POSITIVE_LENGTH_MEASURE(0.18),#191);
#188=CURVE_STYLE('',#193,POSITIVE_LENGTH_MEASURE(0.18),#228);
#189=CURVE_STYLE('',#194,POSITIVE_LENGTH_MEASURE(0.18),#228);
#190=CURVE_STYLE('',#195,POSITIVE_LENGTH_MEASURE(0.18),#228);
#191=DRAUGHTING_PRE_DEFINED_COLOUR('blue');
#192=DRAUGHTING_PRE_DEFINED_CURVE_FONT('continuous');
#193=DRAUGHTING_PRE_DEFINED_CURVE_FONT('continuous');
#194=DRAUGHTING_PRE_DEFINED_CURVE_FONT('continuous');
#195=DRAUGHTING_PRE_DEFINED_CURVE_FONT('continuous');
#196=B_SPLINE_CURVE_WITH_KNOTS('CUTTING PART LINE',3,(#324,#325,#326,#327,
#328,#329,#330,#331,#332,#333,#334,#335,#336),.UNSPECIFIED.,.T.,.F.,(4,
3,3,3,4),(0.,0.335260285034887,0.502992604896065,0.832399115111104,1.),
 .UNSPECIFIED.);
#197=PRESENTATION_LAYER_ASSIGNMENT('1','Layer 1',(#320,#321,#322,#323,#196,
#233,#234,#235,#53,#54,#55));
#198=STYLED_ITEM('',(#209),#320);
#199=STYLED_ITEM('',(#210),#321);
#200=STYLED_ITEM('',(#211),#322);
#201=STYLED_ITEM('',(#212),#323);
#202=STYLED_ITEM('',(#213),#196);
#203=STYLED_ITEM('',(#214),#233);
#204=STYLED_ITEM('',(#215),#234);
#205=STYLED_ITEM('',(#216),#235);
#206=STYLED_ITEM('',(#217),#53);
#207=STYLED_ITEM('',(#218),#54);
#208=STYLED_ITEM('',(#219),#55);
#209=PRESENTATION_STYLE_ASSIGNMENT((#220));
#210=PRESENTATION_STYLE_ASSIGNMENT((#221));
#211=PRESENTATION_STYLE_ASSIGNMENT((#222));
#212=PRESENTATION_STYLE_ASSIGNMENT((#223));
#213=PRESENTATION_STYLE_ASSIGNMENT((#187));
#214=PRESENTATION_STYLE_ASSIGNMENT((#188));
#215=PRESENTATION_STYLE_ASSIGNMENT((#189));
#216=PRESENTATION_STYLE_ASSIGNMENT((#190));
#217=PRESENTATION_STYLE_ASSIGNMENT((#38));
#218=PRESENTATION_STYLE_ASSIGNMENT((#39));
#219=PRESENTATION_STYLE_ASSIGNMENT((#40));
#220=POINT_STYLE('',#224,POSITIVE_LENGTH_MEASURE(3.),#228);
#221=POINT_STYLE('',#225,POSITIVE_LENGTH_MEASURE(3.),#228);
#222=POINT_STYLE('',#226,POSITIVE_LENGTH_MEASURE(3.),#228);
#223=POINT_STYLE('',#227,POSITIVE_LENGTH_MEASURE(3.),#229);
#224=PRE_DEFINED_POINT_MARKER_SYMBOL('plus');
#225=PRE_DEFINED_POINT_MARKER_SYMBOL('plus');
#226=PRE_DEFINED_POINT_MARKER_SYMBOL('plus');
#227=PRE_DEFINED_POINT_MARKER_SYMBOL('plus');
#228=COLOUR_RGB('Pale Maroon',0.811749446860456,0.603921568627451,0.611749446860456);
#229=COLOUR_RGB('Medium Royal',0.2,0.4,0.8);
#230=COLOUR_RGB('Medium Gray',0.490196078431373,0.490196078431373,0.490196078431373);
#231=COLOUR_RGB('Light Gray',0.8,0.8,0.8);
#232=AXIS2_PLACEMENT_3D('',#319,#261,#262);
#233=AXIS2_PLACEMENT_3D('PCS',#337,#263,#264);
#234=AXIS2_PLACEMENT_3D('MCS',#338,#265,#266);
#235=AXIS2_PLACEMENT_3D('CIP',#339,#267,#268);
#236=AXIS2_PLACEMENT_3D('',#340,#269,#270);
#237=AXIS2_PLACEMENT_3D('',#342,#271,#272);
#238=AXIS2_PLACEMENT_3D('',#343,#273,#274);
#239=AXIS2_PLACEMENT_3D('',#345,#275,#276);
#240=AXIS2_PLACEMENT_3D('',#346,#277,#278);
#241=AXIS2_PLACEMENT_3D('',#348,#279,#280);
#242=AXIS2_PLACEMENT_3D('',#349,#281,#282);
#243=AXIS2_PLACEMENT_3D('',#350,#283,#284);
#244=AXIS2_PLACEMENT_3D('',#352,#285,#286);
#245=AXIS2_PLACEMENT_3D('',#354,#287,#288);
#246=AXIS2_PLACEMENT_3D('',#355,#289,#290);
#247=AXIS2_PLACEMENT_3D('',#357,#291,#292);
#248=AXIS2_PLACEMENT_3D('',#359,#293,#294);
#249=AXIS2_PLACEMENT_3D('',#360,#295,#296);
#250=AXIS2_PLACEMENT_3D('',#362,#297,#298);
#251=AXIS2_PLACEMENT_3D('',#363,#299,#300);
#252=AXIS2_PLACEMENT_3D('',#365,#301,#302);
#253=AXIS2_PLACEMENT_3D('',#366,#303,#304);
#254=AXIS2_PLACEMENT_3D('',#367,#305,#306);
#255=AXIS2_PLACEMENT_3D('',#368,#307,#308);
#256=AXIS2_PLACEMENT_3D('',#369,#309,#310);
#257=AXIS2_PLACEMENT_3D('',#372,#311,#312);
#258=AXIS2_PLACEMENT_3D('',#373,#313,#314);
#259=AXIS2_PLACEMENT_3D('',#375,#315,#316);
#260=AXIS2_PLACEMENT_3D('',#376,#317,#318);
#261=DIRECTION('',(0.,0.,1.));
#262=DIRECTION('',(1.,0.,0.));
#263=DIRECTION('',(0.,0.,1.));
#264=DIRECTION('',(1.,0.,0.));
#265=DIRECTION('',(0.,0.,1.));
#266=DIRECTION('',(1.,0.,0.));
#267=DIRECTION('',(0.,0.,1.));
#268=DIRECTION('',(1.,0.,0.));
#269=DIRECTION('',(0.,0.,-1.));
#270=DIRECTION('',(-1.,0.,0.));
#271=DIRECTION('',(0.,0.,1.));
#272=DIRECTION('',(-1.,0.,0.));
#273=DIRECTION('',(0.,0.,-1.));
#274=DIRECTION('',(-1.,0.,0.));
#275=DIRECTION('',(0.,0.,-1.));
#276=DIRECTION('',(1.,0.,-3.11626971732358E-17));
#277=DIRECTION('',(0.,0.,1.));
#278=DIRECTION('',(1.,0.,0.));
#279=DIRECTION('',(0.,0.,-1.));
#280=DIRECTION('',(1.,0.,0.));
#281=DIRECTION('',(0.,0.,1.));
#282=DIRECTION('',(-1.,0.,0.));
#283=DIRECTION('',(0.,0.,-1.));
#284=DIRECTION('',(-1.,0.,0.));
#285=DIRECTION('',(0.,0.,-1.));
#286=DIRECTION('',(1.,0.,0.));
#287=DIRECTION('',(0.,0.,-1.));
#288=DIRECTION('',(1.,0.,0.));
#289=DIRECTION('',(0.,0.,-1.));
#290=DIRECTION('',(-1.,0.,0.));
#291=DIRECTION('',(0.,0.,-1.));
#292=DIRECTION('',(-1.,0.,0.));
#293=DIRECTION('',(0.,0.,-1.));
#294=DIRECTION('',(1.,0.,-9.78263531267547E-17));
#295=DIRECTION('',(0.,0.,-1.));
#296=DIRECTION('',(-1.,0.,0.));
#297=DIRECTION('',(0.,0.,-1.));
#298=DIRECTION('',(1.,0.,0.));
#299=DIRECTION('',(0.,0.,-1.));
#300=DIRECTION('',(-1.,0.,0.));
#301=DIRECTION('',(0.,0.,-1.));
#302=DIRECTION('',(1.,0.,0.));
#303=DIRECTION('',(0.,0.,1.));
#304=DIRECTION('',(-1.,0.,-2.57950089412682E-17));
#305=DIRECTION('',(0.,0.,1.));
#306=DIRECTION('',(-1.,0.,0.));
#307=DIRECTION('',(0.,0.,-1.));
#308=DIRECTION('',(1.,0.,0.));
#309=DIRECTION('',(0.,0.,-1.));
#310=DIRECTION('',(-1.,0.,0.));
#311=DIRECTION('',(0.,0.,-1.));
#312=DIRECTION('',(1.,0.,-3.02889393182533E-18));
#313=DIRECTION('',(0.,0.,1.));
#314=DIRECTION('',(-1.,0.,0.));
#315=DIRECTION('',(0.,0.,-1.));
#316=DIRECTION('',(1.,0.,-1.91458878053737E-14));
#317=DIRECTION('',(0.,0.,-1.));
#318=DIRECTION('',(1.,0.,0.));
#319=CARTESIAN_POINT('',(0.,0.,0.));
#320=CARTESIAN_POINT('',(0.,0.,28.));
#321=CARTESIAN_POINT('',(0.,0.,0.));
#322=CARTESIAN_POINT('',(0.,0.,-22.));
#323=CARTESIAN_POINT('CRP',(-1.,0.,-22.));
#324=CARTESIAN_POINT('',(-0.999825467074358,0.,-20.0000000000014));
#325=CARTESIAN_POINT('',(-0.999883644716239,0.,-20.6666666666682));
#326=CARTESIAN_POINT('',(-0.999941822358119,0.,-21.3333333333351));
#327=CARTESIAN_POINT('',(-0.999999999999999,0.,-22.000000000001));
#328=CARTESIAN_POINT('',(-0.666666666666666,0.,-21.9883597435028));
#329=CARTESIAN_POINT('',(-0.333333333333334,0.,-21.9767194870055));
#330=CARTESIAN_POINT('',(-8.32667268468867E-16,0.,-21.9650792305083));
#331=CARTESIAN_POINT('',(0.,0.,-21.3100528203389));
#332=CARTESIAN_POINT('',(0.,0.,-20.6550264101694));
#333=CARTESIAN_POINT('',(0.,0.,-20.));
#334=CARTESIAN_POINT('',(-0.333275155691454,0.,-20.));
#335=CARTESIAN_POINT('',(-0.666550311382908,0.,-20.));
#336=CARTESIAN_POINT('',(-0.999825467074362,0.,-20.));
#337=CARTESIAN_POINT('',(0.,0.,28.));
#338=CARTESIAN_POINT('',(0.,0.,0.));
#339=CARTESIAN_POINT('',(0.,0.,-22.));
#340=CARTESIAN_POINT('',(0.,0.,28.));
#341=CARTESIAN_POINT('',(-1.5,0.,28.));
#342=CARTESIAN_POINT('',(1.5,0.,28.));
#343=CARTESIAN_POINT('',(0.,0.,27.5));
#344=CARTESIAN_POINT('',(-2.,0.,27.5));
#345=CARTESIAN_POINT('',(0.,0.,27.5));
#346=CARTESIAN_POINT('',(0.,0.,0.));
#347=CARTESIAN_POINT('',(2.,0.,0.));
#348=CARTESIAN_POINT('',(0.,0.,0.));
#349=CARTESIAN_POINT('',(0.,0.,0.));
#350=CARTESIAN_POINT('',(0.,0.,-13.6863891592905));
#351=CARTESIAN_POINT('',(-2.00000000000001,0.,-13.6863891592905));
#352=CARTESIAN_POINT('',(0.,0.,0.));
#353=CARTESIAN_POINT('',(2.,0.,0.));
#354=CARTESIAN_POINT('',(0.,0.,0.));
#355=CARTESIAN_POINT('',(0.,0.,-19.7174257344272));
#356=CARTESIAN_POINT('',(-0.949999999999999,0.,-19.7174257344272));
#357=CARTESIAN_POINT('',(0.,0.,-20.));
#358=CARTESIAN_POINT('',(-0.999825467074362,0.,-20.));
#359=CARTESIAN_POINT('',(0.,0.,-20.));
#360=CARTESIAN_POINT('',(0.,0.,-18.));
#361=CARTESIAN_POINT('',(-0.949999999999999,0.,-18.));
#362=CARTESIAN_POINT('',(0.,0.,0.));
#363=CARTESIAN_POINT('',(0.,0.,-17.2235428646924));
#364=CARTESIAN_POINT('',(-1.05222252113279,0.,-17.2235428646924));
#365=CARTESIAN_POINT('',(0.,0.,-18.));
#366=CARTESIAN_POINT('',(0.,0.,-17.2235428646924));
#367=CARTESIAN_POINT('',(0.,0.,0.));
#368=CARTESIAN_POINT('',(0.,0.,-20.));
#369=CARTESIAN_POINT('',(0.,0.,-22.));
#370=CARTESIAN_POINT('',(-1.,0.,-22.));
#371=CARTESIAN_POINT('',(-1.66533453693773E-15,0.,-21.9650792305083));
#372=CARTESIAN_POINT('',(0.,0.,-21.9650792305083));
#373=CARTESIAN_POINT('',(0.,0.,-20.));
#374=CARTESIAN_POINT('',(-0.999825467074362,0.,-20.));
#375=CARTESIAN_POINT('',(0.,0.,-22.));
#376=CARTESIAN_POINT('',(0.,0.,-20.));
#377=MECHANICAL_DESIGN_GEOMETRIC_PRESENTATION_REPRESENTATION('',(#198,#199,
#200,#201,#202,#203,#204,#205,#206,#207,#208),#378);
#378=(
GEOMETRIC_REPRESENTATION_CONTEXT(3)
GLOBAL_UNCERTAINTY_ASSIGNED_CONTEXT((#379))
GLOBAL_UNIT_ASSIGNED_CONTEXT((#385,#381,#380))
REPRESENTATION_CONTEXT('SME714020G1S','TOP_LEVEL_ASSEMBLY_PART')
);
#379=UNCERTAINTY_MEASURE_WITH_UNIT(LENGTH_MEASURE(2.E-5),#385,
'DISTANCE_ACCURACY_VALUE','Maximum Tolerance applied to model');
#380=(
NAMED_UNIT(*)
SI_UNIT($,.STERADIAN.)
SOLID_ANGLE_UNIT()
);
#381=(
CONVERSION_BASED_UNIT('DEGREE',#383)
NAMED_UNIT(#382)
PLANE_ANGLE_UNIT()
);
#382=DIMENSIONAL_EXPONENTS(0.,0.,0.,0.,0.,0.,0.);
#383=PLANE_ANGLE_MEASURE_WITH_UNIT(PLANE_ANGLE_MEASURE(0.0174532925),#384);
#384=(
NAMED_UNIT(*)
PLANE_ANGLE_UNIT()
SI_UNIT($,.RADIAN.)
);
#385=(
LENGTH_UNIT()
NAMED_UNIT(*)
SI_UNIT(.MILLI.,.METRE.)
);
ENDSEC;
END-ISO-10303-21;
