ISO-10303-21;
HEADER;
/* Generated by software containing ST-Developer
 * from STEP Tools, Inc. (www.steptools.com) 
 */
/* OPTION: using custom schema-name function */

FILE_DESCRIPTION(
/* description */ (''),
/* implementation_level */ '2;1');

FILE_NAME(
/* name */ 'SHF712060E3R050.0Z2_Basic.stp',
/* time_stamp */ '2022-09-02T09:38:50+05:00',
/* author */ (''),
/* organization */ (''),
/* preprocessor_version */ 'ST-DEVELOPER v16.7',
/* originating_system */ 'SIEMENS PLM Software NX 12.0',
/* authorisation */ '');

FILE_SCHEMA (('AUTOMOTIVE_DESIGN { 1 0 10303 214 3 1 1 1 }'));
ENDSEC;

DATA;
#10=CONSTRUCTIVE_GEOMETRY_REPRESENTATION_RELATIONSHIP(
'supplemental geometry','',#34,#11);
#11=CONSTRUCTIVE_GEOMETRY_REPRESENTATION('supplemental geometry',(#201,
#202,#203),#327);
#12=GEOMETRICALLY_BOUNDED_WIREFRAME_SHAPE_REPRESENTATION(
'inpu4B20700Ekb5w-None',(#35),#327);
#13=PROPERTY_DEFINITION_REPRESENTATION(#17,#15);
#14=PROPERTY_DEFINITION_REPRESENTATION(#18,#16);
#15=REPRESENTATION('',(#19),#327);
#16=REPRESENTATION('',(#20),#327);
#17=PROPERTY_DEFINITION('pmi validation property','',#25);
#18=PROPERTY_DEFINITION('pmi validation property','',#25);
#19=VALUE_REPRESENTATION_ITEM('number of annotations',COUNT_MEASURE(0.));
#20=VALUE_REPRESENTATION_ITEM('number of views',COUNT_MEASURE(0.));
#21=SHAPE_REPRESENTATION_RELATIONSHIP('None',
'relationship between inpu4B20700Ekb5w-None and inpu4B20700Ekb5w-None',
#34,#23);
#22=SHAPE_REPRESENTATION_RELATIONSHIP('None',
'relationship between inpu4B20700Ekb5w-None and inpu4B20700Ekb5w-None',
#34,#12);
#23=ADVANCED_BREP_SHAPE_REPRESENTATION('inpu4B20700Ekb5w-None',(#47,#48),
#327);
#24=SHAPE_DEFINITION_REPRESENTATION(#25,#34);
#25=PRODUCT_DEFINITION_SHAPE('','',#26);
#26=PRODUCT_DEFINITION(' ','',#28,#27);
#27=PRODUCT_DEFINITION_CONTEXT('part definition',#33,'design');
#28=PRODUCT_DEFINITION_FORMATION_WITH_SPECIFIED_SOURCE(' ',' ',#30,
 .NOT_KNOWN.);
#29=PRODUCT_RELATED_PRODUCT_CATEGORY('part','',(#30));
#30=PRODUCT('inpu4B20700Ekb5w','inpu4B20700Ekb5w',' ',(#31));
#31=PRODUCT_CONTEXT(' ',#33,'mechanical');
#32=APPLICATION_PROTOCOL_DEFINITION('international standard',
'automotive_design',2010,#33);
#33=APPLICATION_CONTEXT(
'core data for automotive mechanical design processes');
#34=SHAPE_REPRESENTATION('inpu4B20700Ekb5w-None',(#200),#327);
#35=GEOMETRIC_CURVE_SET('None',(#273,#274,#275,#276,#165));
#36=VERTEX_LOOP('',#137);
#37=SURFACE_STYLE_USAGE(.BOTH.,#39);
#38=SURFACE_STYLE_USAGE(.BOTH.,#40);
#39=SURFACE_SIDE_STYLE('',(#41));
#40=SURFACE_SIDE_STYLE('',(#42));
#41=SURFACE_STYLE_FILL_AREA(#43);
#42=SURFACE_STYLE_FILL_AREA(#44);
#43=FILL_AREA_STYLE('',(#45));
#44=FILL_AREA_STYLE('',(#46));
#45=FILL_AREA_STYLE_COLOUR('',#198);
#46=FILL_AREA_STYLE_COLOUR('',#199);
#47=MANIFOLD_SOLID_BREP('NOCUT',#49);
#48=MANIFOLD_SOLID_BREP('CUT',#50);
#49=CLOSED_SHELL('',(#75,#76,#77,#78,#79,#80,#81));
#50=CLOSED_SHELL('',(#82,#83,#84,#85));
#51=TOROIDAL_SURFACE('',#211,7.85,5.);
#52=TOROIDAL_SURFACE('',#222,2.5,0.500000000000003);
#53=CYLINDRICAL_SURFACE('',#209,3.);
#54=CYLINDRICAL_SURFACE('',#215,2.85);
#55=CONICAL_SURFACE('',#207,3.,44.9999999999998);
#56=CONICAL_SURFACE('',#214,2.85566967673344,10.0000000000014);
#57=CONICAL_SURFACE('',#220,2.99982751839974,1.50500000000003);
#58=CONICAL_SURFACE('',#223,1.77635683940025E-15,84.0000000000002);
#59=FACE_BOUND('',#93,.T.);
#60=FACE_BOUND('',#94,.T.);
#61=FACE_BOUND('',#95,.T.);
#62=FACE_BOUND('',#96,.T.);
#63=FACE_BOUND('',#97,.T.);
#64=FACE_BOUND('',#98,.T.);
#65=FACE_BOUND('',#99,.T.);
#66=FACE_BOUND('',#100,.T.);
#67=FACE_BOUND('',#101,.T.);
#68=FACE_BOUND('',#102,.T.);
#69=FACE_BOUND('',#105,.T.);
#70=FACE_BOUND('',#106,.T.);
#71=FACE_BOUND('',#107,.T.);
#72=FACE_BOUND('',#108,.T.);
#73=FACE_BOUND('',#36,.T.);
#74=FACE_BOUND('',#109,.T.);
#75=ADVANCED_FACE('',(#89),#86,.T.);
#76=ADVANCED_FACE('',(#59,#60),#55,.T.);
#77=ADVANCED_FACE('',(#61,#62),#53,.T.);
#78=ADVANCED_FACE('',(#63,#64),#51,.F.);
#79=ADVANCED_FACE('',(#65,#66),#56,.T.);
#80=ADVANCED_FACE('',(#67,#68),#54,.T.);
#81=ADVANCED_FACE('',(#90),#87,.T.);
#82=ADVANCED_FACE('',(#91),#88,.F.);
#83=ADVANCED_FACE('',(#69,#70),#57,.T.);
#84=ADVANCED_FACE('',(#71,#72),#52,.T.);
#85=ADVANCED_FACE('',(#73,#74),#58,.F.);
#86=PLANE('',#205);
#87=PLANE('',#216);
#88=PLANE('',#218);
#89=FACE_OUTER_BOUND('',#92,.T.);
#90=FACE_OUTER_BOUND('',#103,.T.);
#91=FACE_OUTER_BOUND('',#104,.T.);
#92=EDGE_LOOP('',(#110));
#93=EDGE_LOOP('',(#111));
#94=EDGE_LOOP('',(#112));
#95=EDGE_LOOP('',(#113));
#96=EDGE_LOOP('',(#114));
#97=EDGE_LOOP('',(#115));
#98=EDGE_LOOP('',(#116));
#99=EDGE_LOOP('',(#117));
#100=EDGE_LOOP('',(#118));
#101=EDGE_LOOP('',(#119));
#102=EDGE_LOOP('',(#120));
#103=EDGE_LOOP('',(#121));
#104=EDGE_LOOP('',(#122));
#105=EDGE_LOOP('',(#123));
#106=EDGE_LOOP('',(#124));
#107=EDGE_LOOP('',(#125));
#108=EDGE_LOOP('',(#126));
#109=EDGE_LOOP('',(#127));
#110=ORIENTED_EDGE('',*,*,#138,.F.);
#111=ORIENTED_EDGE('',*,*,#138,.T.);
#112=ORIENTED_EDGE('',*,*,#139,.F.);
#113=ORIENTED_EDGE('',*,*,#139,.T.);
#114=ORIENTED_EDGE('',*,*,#140,.F.);
#115=ORIENTED_EDGE('',*,*,#140,.T.);
#116=ORIENTED_EDGE('',*,*,#141,.F.);
#117=ORIENTED_EDGE('',*,*,#142,.T.);
#118=ORIENTED_EDGE('',*,*,#143,.F.);
#119=ORIENTED_EDGE('',*,*,#141,.T.);
#120=ORIENTED_EDGE('',*,*,#142,.F.);
#121=ORIENTED_EDGE('',*,*,#143,.T.);
#122=ORIENTED_EDGE('',*,*,#144,.T.);
#123=ORIENTED_EDGE('',*,*,#145,.F.);
#124=ORIENTED_EDGE('',*,*,#144,.F.);
#125=ORIENTED_EDGE('',*,*,#146,.F.);
#126=ORIENTED_EDGE('',*,*,#145,.T.);
#127=ORIENTED_EDGE('',*,*,#146,.T.);
#128=VERTEX_POINT('',#297);
#129=VERTEX_POINT('',#300);
#130=VERTEX_POINT('',#303);
#131=VERTEX_POINT('',#306);
#132=VERTEX_POINT('',#309);
#133=VERTEX_POINT('',#311);
#134=VERTEX_POINT('',#316);
#135=VERTEX_POINT('',#319);
#136=VERTEX_POINT('',#322);
#137=VERTEX_POINT('',#324);
#138=EDGE_CURVE('',#128,#128,#147,.T.);
#139=EDGE_CURVE('',#129,#129,#148,.T.);
#140=EDGE_CURVE('',#130,#130,#149,.T.);
#141=EDGE_CURVE('',#131,#131,#150,.T.);
#142=EDGE_CURVE('',#132,#132,#151,.T.);
#143=EDGE_CURVE('',#133,#133,#152,.T.);
#144=EDGE_CURVE('',#134,#134,#153,.T.);
#145=EDGE_CURVE('',#135,#135,#154,.T.);
#146=EDGE_CURVE('',#136,#136,#155,.T.);
#147=CIRCLE('',#204,2.5);
#148=CIRCLE('',#206,3.);
#149=CIRCLE('',#208,3.);
#150=CIRCLE('',#210,2.85);
#151=CIRCLE('',#212,2.85);
#152=CIRCLE('',#213,2.85566967673344);
#153=CIRCLE('',#217,2.85566967673344);
#154=CIRCLE('',#219,2.99982751839974);
#155=CIRCLE('',#221,2.44773576836617);
#156=CURVE_STYLE('',#161,POSITIVE_LENGTH_MEASURE(0.18),#160);
#157=CURVE_STYLE('',#162,POSITIVE_LENGTH_MEASURE(0.18),#197);
#158=CURVE_STYLE('',#163,POSITIVE_LENGTH_MEASURE(0.18),#197);
#159=CURVE_STYLE('',#164,POSITIVE_LENGTH_MEASURE(0.18),#197);
#160=DRAUGHTING_PRE_DEFINED_COLOUR('blue');
#161=DRAUGHTING_PRE_DEFINED_CURVE_FONT('continuous');
#162=DRAUGHTING_PRE_DEFINED_CURVE_FONT('continuous');
#163=DRAUGHTING_PRE_DEFINED_CURVE_FONT('continuous');
#164=DRAUGHTING_PRE_DEFINED_CURVE_FONT('continuous');
#165=TRIMMED_CURVE('CUTTING PART LINE',#166,(PARAMETER_VALUE(0.)),(
PARAMETER_VALUE(1.)),.T.,.PARAMETER.);
#166=(
BOUNDED_CURVE()
B_SPLINE_CURVE(3,(#277,#278,#279,#280,#281,#282,#283,#284,#285,#286,#287,
#288,#289,#290,#291,#292),.UNSPECIFIED.,.T.,.F.)
B_SPLINE_CURVE_WITH_KNOTS((1,3,3,3,3,3,3,1),(-0.32995039666193,0.,0.1414775190666,
0.190389078420337,0.505897965519598,0.67004960333807,1.,1.1414775190666),
 .UNSPECIFIED.)
CURVE()
GEOMETRIC_REPRESENTATION_ITEM()
RATIONAL_B_SPLINE_CURVE((1.,1.,1.,1.,0.772875339514812,0.772875339514812,
1.,1.,1.,1.,1.,1.,1.,1.,1.,1.))
REPRESENTATION_ITEM('CUTTING PART LINE')
);
#167=PRESENTATION_LAYER_ASSIGNMENT('1','Layer 1',(#273,#274,#275,#276,#165,
#201,#202,#203,#47,#48));
#168=STYLED_ITEM('',(#178),#273);
#169=STYLED_ITEM('',(#179),#274);
#170=STYLED_ITEM('',(#180),#275);
#171=STYLED_ITEM('',(#181),#276);
#172=STYLED_ITEM('',(#182),#165);
#173=STYLED_ITEM('',(#183),#201);
#174=STYLED_ITEM('',(#184),#202);
#175=STYLED_ITEM('',(#185),#203);
#176=STYLED_ITEM('',(#186),#47);
#177=STYLED_ITEM('',(#187),#48);
#178=PRESENTATION_STYLE_ASSIGNMENT((#188));
#179=PRESENTATION_STYLE_ASSIGNMENT((#189));
#180=PRESENTATION_STYLE_ASSIGNMENT((#190));
#181=PRESENTATION_STYLE_ASSIGNMENT((#191));
#182=PRESENTATION_STYLE_ASSIGNMENT((#156));
#183=PRESENTATION_STYLE_ASSIGNMENT((#157));
#184=PRESENTATION_STYLE_ASSIGNMENT((#158));
#185=PRESENTATION_STYLE_ASSIGNMENT((#159));
#186=PRESENTATION_STYLE_ASSIGNMENT((#37));
#187=PRESENTATION_STYLE_ASSIGNMENT((#38));
#188=POINT_STYLE('',#192,POSITIVE_LENGTH_MEASURE(3.),#196);
#189=POINT_STYLE('',#193,POSITIVE_LENGTH_MEASURE(3.),#197);
#190=POINT_STYLE('',#194,POSITIVE_LENGTH_MEASURE(3.),#197);
#191=POINT_STYLE('',#195,POSITIVE_LENGTH_MEASURE(3.),#197);
#192=PRE_DEFINED_POINT_MARKER_SYMBOL('plus');
#193=PRE_DEFINED_POINT_MARKER_SYMBOL('plus');
#194=PRE_DEFINED_POINT_MARKER_SYMBOL('plus');
#195=PRE_DEFINED_POINT_MARKER_SYMBOL('plus');
#196=COLOUR_RGB('Medium Royal',0.2,0.4,0.8);
#197=COLOUR_RGB('Strong Stone',0.576470588235294,0.54508278019379,0.392156862745098);
#198=COLOUR_RGB('Medium Gray',0.490196078431373,0.490196078431373,0.490196078431373);
#199=COLOUR_RGB('Light Gray',0.8,0.8,0.8);
#200=AXIS2_PLACEMENT_3D('',#272,#224,#225);
#201=AXIS2_PLACEMENT_3D('MCS',#293,#226,#227);
#202=AXIS2_PLACEMENT_3D('PCS',#294,#228,#229);
#203=AXIS2_PLACEMENT_3D('CIP',#295,#230,#231);
#204=AXIS2_PLACEMENT_3D('',#296,#232,#233);
#205=AXIS2_PLACEMENT_3D('',#298,#234,#235);
#206=AXIS2_PLACEMENT_3D('',#299,#236,#237);
#207=AXIS2_PLACEMENT_3D('',#301,#238,#239);
#208=AXIS2_PLACEMENT_3D('',#302,#240,#241);
#209=AXIS2_PLACEMENT_3D('',#304,#242,#243);
#210=AXIS2_PLACEMENT_3D('',#305,#244,#245);
#211=AXIS2_PLACEMENT_3D('',#307,#246,#247);
#212=AXIS2_PLACEMENT_3D('',#308,#248,#249);
#213=AXIS2_PLACEMENT_3D('',#310,#250,#251);
#214=AXIS2_PLACEMENT_3D('',#312,#252,#253);
#215=AXIS2_PLACEMENT_3D('',#313,#254,#255);
#216=AXIS2_PLACEMENT_3D('',#314,#256,#257);
#217=AXIS2_PLACEMENT_3D('',#315,#258,#259);
#218=AXIS2_PLACEMENT_3D('',#317,#260,#261);
#219=AXIS2_PLACEMENT_3D('',#318,#262,#263);
#220=AXIS2_PLACEMENT_3D('',#320,#264,#265);
#221=AXIS2_PLACEMENT_3D('',#321,#266,#267);
#222=AXIS2_PLACEMENT_3D('',#323,#268,#269);
#223=AXIS2_PLACEMENT_3D('',#325,#270,#271);
#224=DIRECTION('',(0.,0.,1.));
#225=DIRECTION('',(1.,0.,0.));
#226=DIRECTION('',(0.,0.,1.));
#227=DIRECTION('',(1.,0.,0.));
#228=DIRECTION('',(0.,0.,1.));
#229=DIRECTION('',(1.,0.,0.));
#230=DIRECTION('',(0.,0.,1.));
#231=DIRECTION('',(1.,0.,0.));
#232=DIRECTION('',(0.,0.,-1.));
#233=DIRECTION('',(-1.,0.,0.));
#234=DIRECTION('',(0.,0.,1.));
#235=DIRECTION('',(1.,0.,0.));
#236=DIRECTION('',(0.,0.,-1.));
#237=DIRECTION('',(-1.,0.,0.));
#238=DIRECTION('',(0.,0.,-1.));
#239=DIRECTION('',(-1.,0.,4.4967906655431E-17));
#240=DIRECTION('',(0.,0.,-1.));
#241=DIRECTION('',(-1.,0.,0.));
#242=DIRECTION('',(0.,0.,-1.));
#243=DIRECTION('',(-1.,0.,0.));
#244=DIRECTION('',(0.,0.,-1.));
#245=DIRECTION('',(-1.,0.,0.));
#246=DIRECTION('',(0.,0.,-1.));
#247=DIRECTION('',(-1.,0.,0.));
#248=DIRECTION('',(0.,0.,-1.));
#249=DIRECTION('',(-1.,0.,0.));
#250=DIRECTION('',(0.,0.,-1.));
#251=DIRECTION('',(-1.,0.,0.));
#252=DIRECTION('',(0.,0.,-1.));
#253=DIRECTION('',(-1.,0.,3.2916467111302E-16));
#254=DIRECTION('',(0.,0.,-1.));
#255=DIRECTION('',(-1.,0.,0.));
#256=DIRECTION('',(0.,0.,-1.));
#257=DIRECTION('',(-1.,0.,0.));
#258=DIRECTION('',(0.,0.,1.));
#259=DIRECTION('',(-1.,0.,0.));
#260=DIRECTION('',(0.,0.,-1.));
#261=DIRECTION('',(-1.,0.,0.));
#262=DIRECTION('',(0.,0.,-1.));
#263=DIRECTION('',(-1.,0.,0.));
#264=DIRECTION('',(0.,0.,-1.));
#265=DIRECTION('',(-1.,0.,-2.3704013891057E-16));
#266=DIRECTION('',(0.,0.,-1.));
#267=DIRECTION('',(-1.,0.,0.));
#268=DIRECTION('',(0.,0.,-1.));
#269=DIRECTION('',(-1.,0.,0.));
#270=DIRECTION('',(0.,0.,-1.));
#271=DIRECTION('',(-1.,0.,8.02237851095789E-18));
#272=CARTESIAN_POINT('',(0.,0.,0.));
#273=CARTESIAN_POINT('CRP',(-3.,0.,-26.2155));
#274=CARTESIAN_POINT('',(0.,0.,0.));
#275=CARTESIAN_POINT('',(0.,0.,28.7845));
#276=CARTESIAN_POINT('',(0.,0.,-26.2155));
#277=CARTESIAN_POINT('',(-8.88178419700125E-16,0.,-25.9554935516176));
#278=CARTESIAN_POINT('',(-0.815911922788722,0.,-26.0412493503065));
#279=CARTESIAN_POINT('',(-1.63182384557744,0.,-26.1270051489953));
#280=CARTESIAN_POINT('',(-2.44773576836616,0.,-26.2127609476841));
#281=CARTESIAN_POINT('',(-2.77023269345962,0.,-26.2466567403716));
#282=CARTESIAN_POINT('',(-3.00834429300949,0.,-26.0265293735668));
#283=CARTESIAN_POINT('',(-2.99982751839973,0.,-25.7023679076167));
#284=CARTESIAN_POINT('',(-2.95177490451105,0.,-23.8734119384111));
#285=CARTESIAN_POINT('',(-2.90372229062221,0.,-22.0444559692056));
#286=CARTESIAN_POINT('',(-2.85566967673344,0.,-20.2155));
#287=CARTESIAN_POINT('',(-1.90377978448896,0.,-20.2155));
#288=CARTESIAN_POINT('',(-0.95188989224448,0.,-20.2155));
#289=CARTESIAN_POINT('',(0.,0.,-20.2155));
#290=CARTESIAN_POINT('',(0.,0.,-22.1288311838725));
#291=CARTESIAN_POINT('',(0.,0.,-24.0421623677451));
#292=CARTESIAN_POINT('',(-8.88178419700125E-16,0.,-25.9554935516176));
#293=CARTESIAN_POINT('',(0.,0.,0.));
#294=CARTESIAN_POINT('',(0.,0.,28.7845));
#295=CARTESIAN_POINT('',(0.,0.,-26.2155));
#296=CARTESIAN_POINT('',(0.,0.,28.7845));
#297=CARTESIAN_POINT('',(-2.5,0.,28.7845));
#298=CARTESIAN_POINT('',(2.5,0.,28.7845));
#299=CARTESIAN_POINT('',(0.,0.,28.2845));
#300=CARTESIAN_POINT('',(-3.,0.,28.2845));
#301=CARTESIAN_POINT('',(0.,0.,28.2845));
#302=CARTESIAN_POINT('',(0.,0.,2.45781143455304E-5));
#303=CARTESIAN_POINT('',(-3.,0.,2.45781143455304E-5));
#304=CARTESIAN_POINT('',(0.,0.,0.));
#305=CARTESIAN_POINT('',(0.,0.,-1.21550000000001));
#306=CARTESIAN_POINT('',(-2.85,0.,-1.21550000000001));
#307=CARTESIAN_POINT('',(0.,0.,-1.21550000000001));
#308=CARTESIAN_POINT('',(0.,0.,-20.1833456654185));
#309=CARTESIAN_POINT('',(-2.85,0.,-20.1833456654185));
#310=CARTESIAN_POINT('',(0.,0.,-20.2155));
#311=CARTESIAN_POINT('',(-2.85566967673344,0.,-20.2155));
#312=CARTESIAN_POINT('',(0.,0.,-20.2155));
#313=CARTESIAN_POINT('',(0.,0.,0.));
#314=CARTESIAN_POINT('',(0.,0.,-20.2155));
#315=CARTESIAN_POINT('',(0.,0.,-20.2155));
#316=CARTESIAN_POINT('',(-2.85566967673344,0.,-20.2155));
#317=CARTESIAN_POINT('',(0.,0.,-20.2155));
#318=CARTESIAN_POINT('',(0.,0.,-25.7023679076167));
#319=CARTESIAN_POINT('',(-2.99982751839974,0.,-25.7023679076167));
#320=CARTESIAN_POINT('',(0.,0.,-25.7023679076167));
#321=CARTESIAN_POINT('',(0.,0.,-26.2127609476841));
#322=CARTESIAN_POINT('',(-2.44773576836617,0.,-26.2127609476841));
#323=CARTESIAN_POINT('',(0.,0.,-25.7155));
#324=CARTESIAN_POINT('',(0.,0.,-25.9554935516176));
#325=CARTESIAN_POINT('',(0.,0.,-25.9554935516176));
#326=MECHANICAL_DESIGN_GEOMETRIC_PRESENTATION_REPRESENTATION('',(#168,#169,
#170,#171,#172,#173,#174,#175,#176,#177),#327);
#327=(
GEOMETRIC_REPRESENTATION_CONTEXT(3)
GLOBAL_UNCERTAINTY_ASSIGNED_CONTEXT((#328))
GLOBAL_UNIT_ASSIGNED_CONTEXT((#334,#330,#329))
REPRESENTATION_CONTEXT('SHF712060E3R050','TOP_LEVEL_ASSEMBLY_PART')
);
#328=UNCERTAINTY_MEASURE_WITH_UNIT(LENGTH_MEASURE(2.E-5),#334,
'DISTANCE_ACCURACY_VALUE','Maximum Tolerance applied to model');
#329=(
NAMED_UNIT(*)
SI_UNIT($,.STERADIAN.)
SOLID_ANGLE_UNIT()
);
#330=(
CONVERSION_BASED_UNIT('DEGREE',#332)
NAMED_UNIT(#331)
PLANE_ANGLE_UNIT()
);
#331=DIMENSIONAL_EXPONENTS(0.,0.,0.,0.,0.,0.,0.);
#332=PLANE_ANGLE_MEASURE_WITH_UNIT(PLANE_ANGLE_MEASURE(0.0174532925),#333);
#333=(
NAMED_UNIT(*)
PLANE_ANGLE_UNIT()
SI_UNIT($,.RADIAN.)
);
#334=(
LENGTH_UNIT()
NAMED_UNIT(*)
SI_UNIT(.MILLI.,.METRE.)
);
ENDSEC;
END-ISO-10303-21;
