ISO-10303-21;
HEADER;
/* Generated by software containing ST-Developer
 * from STEP Tools, Inc. (www.steptools.com) 
 */
/* OPTION: using custom schema-name function */

FILE_DESCRIPTION(
/* description */ (''),
/* implementation_level */ '2;1');

FILE_NAME(
/* name */ 'JH724100T2R2R050.0Z4_Basic.stp',
/* time_stamp */ '2021-10-13T16:50:25+05:00',
/* author */ (''),
/* organization */ (''),
/* preprocessor_version */ 'ST-DEVELOPER v16.7',
/* originating_system */ 'SIEMENS PLM Software NX 12.0',
/* authorisation */ '');

FILE_SCHEMA (('AUTOMOTIVE_DESIGN { 1 0 10303 214 3 1 1 1 }'));
ENDSEC;

DATA;
#10=CONSTRUCTIVE_GEOMETRY_REPRESENTATION_RELATIONSHIP(
'supplemental geometry','',#26,#11);
#11=CONSTRUCTIVE_GEOMETRY_REPRESENTATION('supplemental geometry',(#168,
#169,#170),#302);
#12=GEOMETRICALLY_BOUNDED_WIREFRAME_SHAPE_REPRESENTATION(
'JH724100T2R2R050.0Z4_Basic-None',(#27),#302);
#13=SHAPE_REPRESENTATION_RELATIONSHIP('None',
'relationship between JH724100T2R2R050.0Z4_Basic-None and JH724100T2R2
R050.0Z4_Basic-None',#26,#15);
#14=SHAPE_REPRESENTATION_RELATIONSHIP('None',
'relationship between JH724100T2R2R050.0Z4_Basic-None and JH724100T2R2
R050.0Z4_Basic-None',#26,#12);
#15=ADVANCED_BREP_SHAPE_REPRESENTATION(
'JH724100T2R2R050.0Z4_Basic-None',(#39,#40),#302);
#16=SHAPE_DEFINITION_REPRESENTATION(#17,#26);
#17=PRODUCT_DEFINITION_SHAPE('','',#18);
#18=PRODUCT_DEFINITION(' ','',#20,#19);
#19=PRODUCT_DEFINITION_CONTEXT('part definition',#25,'design');
#20=PRODUCT_DEFINITION_FORMATION_WITH_SPECIFIED_SOURCE(' ',' ',#22,
 .NOT_KNOWN.);
#21=PRODUCT_RELATED_PRODUCT_CATEGORY('part','',(#22));
#22=PRODUCT('INPU8AF8F303wm2n','INPU8AF8F303wm2n',' ',(#23));
#23=PRODUCT_CONTEXT(' ',#25,'mechanical');
#24=APPLICATION_PROTOCOL_DEFINITION('international standard',
'automotive_design',2010,#25);
#25=APPLICATION_CONTEXT(
'core data for automotive mechanical design processes');
#26=SHAPE_REPRESENTATION('JH724100T2R2R050.0Z4_Basic-None',(#167),#302);
#27=GEOMETRIC_CURVE_SET('None',(#225,#226,#227,#228,#132));
#28=CONICAL_SURFACE('',#182,5.,44.9999999999999);
#29=SURFACE_STYLE_USAGE(.BOTH.,#31);
#30=SURFACE_STYLE_USAGE(.BOTH.,#32);
#31=SURFACE_SIDE_STYLE('',(#33));
#32=SURFACE_SIDE_STYLE('',(#34));
#33=SURFACE_STYLE_FILL_AREA(#35);
#34=SURFACE_STYLE_FILL_AREA(#36);
#35=FILL_AREA_STYLE('',(#37));
#36=FILL_AREA_STYLE('',(#38));
#37=FILL_AREA_STYLE_COLOUR('',#165);
#38=FILL_AREA_STYLE_COLOUR('',#166);
#39=MANIFOLD_SOLID_BREP('CUT',#41);
#40=MANIFOLD_SOLID_BREP('NOCUT',#42);
#41=CLOSED_SHELL('',(#53,#54,#55,#56,#57));
#42=CLOSED_SHELL('',(#58,#59,#60,#61));
#43=PLANE('',#178);
#44=PLANE('',#180);
#45=PLANE('',#185);
#46=(
BOUNDED_SURFACE()
B_SPLINE_SURFACE(3,3,((#261,#262,#263,#264,#265,#266,#267),(#268,#269,#270,
#271,#272,#273,#274),(#275,#276,#277,#278,#279,#280,#281),(#282,#283,#284,
#285,#286,#287,#288)),.UNSPECIFIED.,.F.,.T.,.F.)
B_SPLINE_SURFACE_WITH_KNOTS((4,4),(1,3,3,3,1),(0.,1.),(-0.5,0.,0.5,1.,1.5),
 .UNSPECIFIED.)
GEOMETRIC_REPRESENTATION_ITEM()
RATIONAL_B_SPLINE_SURFACE(((1.,0.333333333333333,0.333333333333333,1.,0.333333333333333,
0.333333333333333,1.),(0.997520631939692,0.33250687731323,0.33250687731323,
0.997520631939692,0.33250687731323,0.33250687731323,0.997520631939692),
(0.997520631939692,0.33250687731323,0.33250687731323,0.997520631939692,
0.33250687731323,0.33250687731323,0.997520631939692),(1.,0.333333333333333,
0.333333333333333,1.,0.333333333333333,0.333333333333333,1.)))
REPRESENTATION_ITEM('')
SURFACE()
);
#47=SPHERICAL_SURFACE('',#175,2.);
#48=SPHERICAL_SURFACE('',#177,5.00000000000001);
#49=FACE_OUTER_BOUND('',#76,.T.);
#50=FACE_OUTER_BOUND('',#81,.T.);
#51=FACE_OUTER_BOUND('',#82,.T.);
#52=FACE_OUTER_BOUND('',#87,.T.);
#53=ADVANCED_FACE('',(#64,#65),#62,.T.);
#54=ADVANCED_FACE('',(#49),#47,.T.);
#55=ADVANCED_FACE('',(#66,#67),#46,.T.);
#56=ADVANCED_FACE('',(#68,#69),#48,.T.);
#57=ADVANCED_FACE('',(#50),#43,.F.);
#58=ADVANCED_FACE('',(#51),#44,.T.);
#59=ADVANCED_FACE('',(#70,#71),#28,.T.);
#60=ADVANCED_FACE('',(#72,#73),#63,.T.);
#61=ADVANCED_FACE('',(#52),#45,.T.);
#62=CYLINDRICAL_SURFACE('',#173,5.);
#63=CYLINDRICAL_SURFACE('',#184,5.);
#64=FACE_BOUND('',#74,.T.);
#65=FACE_BOUND('',#75,.T.);
#66=FACE_BOUND('',#77,.T.);
#67=FACE_BOUND('',#78,.T.);
#68=FACE_BOUND('',#79,.T.);
#69=FACE_BOUND('',#80,.T.);
#70=FACE_BOUND('',#83,.T.);
#71=FACE_BOUND('',#84,.T.);
#72=FACE_BOUND('',#85,.T.);
#73=FACE_BOUND('',#86,.T.);
#74=EDGE_LOOP('',(#88));
#75=EDGE_LOOP('',(#89));
#76=EDGE_LOOP('',(#90));
#77=EDGE_LOOP('',(#91));
#78=EDGE_LOOP('',(#92));
#79=EDGE_LOOP('',(#93));
#80=EDGE_LOOP('',(#94));
#81=EDGE_LOOP('',(#95));
#82=EDGE_LOOP('',(#96));
#83=EDGE_LOOP('',(#97));
#84=EDGE_LOOP('',(#98));
#85=EDGE_LOOP('',(#99));
#86=EDGE_LOOP('',(#100));
#87=EDGE_LOOP('',(#101));
#88=ORIENTED_EDGE('',*,*,#109,.T.);
#89=ORIENTED_EDGE('',*,*,#110,.F.);
#90=ORIENTED_EDGE('',*,*,#111,.T.);
#91=ORIENTED_EDGE('',*,*,#112,.T.);
#92=ORIENTED_EDGE('',*,*,#111,.F.);
#93=ORIENTED_EDGE('',*,*,#110,.T.);
#94=ORIENTED_EDGE('',*,*,#112,.F.);
#95=ORIENTED_EDGE('',*,*,#109,.F.);
#96=ORIENTED_EDGE('',*,*,#113,.F.);
#97=ORIENTED_EDGE('',*,*,#113,.T.);
#98=ORIENTED_EDGE('',*,*,#114,.F.);
#99=ORIENTED_EDGE('',*,*,#114,.T.);
#100=ORIENTED_EDGE('',*,*,#115,.T.);
#101=ORIENTED_EDGE('',*,*,#115,.F.);
#102=VERTEX_POINT('',#252);
#103=VERTEX_POINT('',#254);
#104=VERTEX_POINT('',#257);
#105=VERTEX_POINT('',#260);
#106=VERTEX_POINT('',#292);
#107=VERTEX_POINT('',#295);
#108=VERTEX_POINT('',#298);
#109=EDGE_CURVE('',#102,#102,#116,.T.);
#110=EDGE_CURVE('',#103,#103,#117,.T.);
#111=EDGE_CURVE('',#104,#104,#118,.T.);
#112=EDGE_CURVE('',#105,#105,#119,.T.);
#113=EDGE_CURVE('',#106,#106,#120,.T.);
#114=EDGE_CURVE('',#107,#107,#121,.T.);
#115=EDGE_CURVE('',#108,#108,#122,.T.);
#116=CIRCLE('',#171,5.);
#117=CIRCLE('',#172,5.00000000000001);
#118=CIRCLE('',#174,1.80670331132397);
#119=CIRCLE('',#176,4.8178754968639);
#120=CIRCLE('',#179,4.29999999999999);
#121=CIRCLE('',#181,5.);
#122=CIRCLE('',#183,5.);
#123=CURVE_STYLE('',#128,POSITIVE_LENGTH_MEASURE(0.18),#127);
#124=CURVE_STYLE('',#129,POSITIVE_LENGTH_MEASURE(0.18),#163);
#125=CURVE_STYLE('',#130,POSITIVE_LENGTH_MEASURE(0.18),#163);
#126=CURVE_STYLE('',#131,POSITIVE_LENGTH_MEASURE(0.18),#163);
#127=DRAUGHTING_PRE_DEFINED_COLOUR('blue');
#128=DRAUGHTING_PRE_DEFINED_CURVE_FONT('continuous');
#129=DRAUGHTING_PRE_DEFINED_CURVE_FONT('continuous');
#130=DRAUGHTING_PRE_DEFINED_CURVE_FONT('continuous');
#131=DRAUGHTING_PRE_DEFINED_CURVE_FONT('continuous');
#132=TRIMMED_CURVE('CUTTING PART LINE',#133,(PARAMETER_VALUE(0.)),(
PARAMETER_VALUE(1.)),.T.,.PARAMETER.);
#133=(
BOUNDED_CURVE()
B_SPLINE_CURVE(3,(#229,#230,#231,#232,#233,#234,#235,#236,#237,#238,#239,
#240,#241,#242,#243,#244,#245,#246,#247),.UNSPECIFIED.,.T.,.F.)
B_SPLINE_CURVE_WITH_KNOTS((4,3,3,3,3,3,4),(0.,0.0614668630611128,0.1041917515094,
0.376484083321824,0.447658541439544,0.842188154699267,1.),.UNSPECIFIED.)
CURVE()
GEOMETRIC_REPRESENTATION_ITEM()
RATIONAL_B_SPLINE_CURVE((1.,1.,1.,1.,0.993901287508253,0.993901287508253,
1.,0.997520631939692,0.997520631939692,1.,0.896834427038808,0.896834427038808,
1.,1.,1.,1.,1.,1.,1.))
REPRESENTATION_ITEM('CUTTING PART LINE')
);
#134=PRESENTATION_LAYER_ASSIGNMENT('1','Layer 1',(#225,#226,#227,#228,#132,
#168,#169,#170,#39,#40));
#135=STYLED_ITEM('',(#145),#225);
#136=STYLED_ITEM('',(#146),#226);
#137=STYLED_ITEM('',(#147),#227);
#138=STYLED_ITEM('',(#148),#228);
#139=STYLED_ITEM('',(#149),#132);
#140=STYLED_ITEM('',(#150),#168);
#141=STYLED_ITEM('',(#151),#169);
#142=STYLED_ITEM('',(#152),#170);
#143=STYLED_ITEM('',(#153),#39);
#144=STYLED_ITEM('',(#154),#40);
#145=PRESENTATION_STYLE_ASSIGNMENT((#155));
#146=PRESENTATION_STYLE_ASSIGNMENT((#156));
#147=PRESENTATION_STYLE_ASSIGNMENT((#157));
#148=PRESENTATION_STYLE_ASSIGNMENT((#158));
#149=PRESENTATION_STYLE_ASSIGNMENT((#123));
#150=PRESENTATION_STYLE_ASSIGNMENT((#124));
#151=PRESENTATION_STYLE_ASSIGNMENT((#125));
#152=PRESENTATION_STYLE_ASSIGNMENT((#126));
#153=PRESENTATION_STYLE_ASSIGNMENT((#29));
#154=PRESENTATION_STYLE_ASSIGNMENT((#30));
#155=POINT_STYLE('',#159,POSITIVE_LENGTH_MEASURE(3.),#163);
#156=POINT_STYLE('',#160,POSITIVE_LENGTH_MEASURE(3.),#163);
#157=POINT_STYLE('',#161,POSITIVE_LENGTH_MEASURE(3.),#163);
#158=POINT_STYLE('',#162,POSITIVE_LENGTH_MEASURE(3.),#164);
#159=PRE_DEFINED_POINT_MARKER_SYMBOL('plus');
#160=PRE_DEFINED_POINT_MARKER_SYMBOL('plus');
#161=PRE_DEFINED_POINT_MARKER_SYMBOL('plus');
#162=PRE_DEFINED_POINT_MARKER_SYMBOL('plus');
#163=COLOUR_RGB('Pale Maroon',0.811749446860456,0.603921568627451,0.611749446860456);
#164=COLOUR_RGB('Medium Royal',0.2,0.4,0.8);
#165=COLOUR_RGB('Light Gray',0.8,0.8,0.8);
#166=COLOUR_RGB('Medium Gray',0.490196078431373,0.490196078431373,0.490196078431373);
#167=AXIS2_PLACEMENT_3D('',#224,#186,#187);
#168=AXIS2_PLACEMENT_3D('PCS',#248,#188,#189);
#169=AXIS2_PLACEMENT_3D('MCS',#249,#190,#191);
#170=AXIS2_PLACEMENT_3D('CIP',#250,#192,#193);
#171=AXIS2_PLACEMENT_3D('',#251,#194,#195);
#172=AXIS2_PLACEMENT_3D('',#253,#196,#197);
#173=AXIS2_PLACEMENT_3D('',#255,#198,#199);
#174=AXIS2_PLACEMENT_3D('',#256,#200,#201);
#175=AXIS2_PLACEMENT_3D('',#258,#202,#203);
#176=AXIS2_PLACEMENT_3D('',#259,#204,#205);
#177=AXIS2_PLACEMENT_3D('',#289,#206,#207);
#178=AXIS2_PLACEMENT_3D('',#290,#208,#209);
#179=AXIS2_PLACEMENT_3D('',#291,#210,#211);
#180=AXIS2_PLACEMENT_3D('',#293,#212,#213);
#181=AXIS2_PLACEMENT_3D('',#294,#214,#215);
#182=AXIS2_PLACEMENT_3D('',#296,#216,#217);
#183=AXIS2_PLACEMENT_3D('',#297,#218,#219);
#184=AXIS2_PLACEMENT_3D('',#299,#220,#221);
#185=AXIS2_PLACEMENT_3D('',#300,#222,#223);
#186=DIRECTION('',(0.,0.,1.));
#187=DIRECTION('',(1.,0.,0.));
#188=DIRECTION('',(0.,0.,1.));
#189=DIRECTION('',(1.,0.,0.));
#190=DIRECTION('',(0.,0.,1.));
#191=DIRECTION('',(1.,0.,0.));
#192=DIRECTION('',(0.,0.,1.));
#193=DIRECTION('',(1.,0.,0.));
#194=DIRECTION('',(0.,0.,-1.));
#195=DIRECTION('',(-1.,0.,0.));
#196=DIRECTION('',(0.,0.,-1.));
#197=DIRECTION('',(-1.,0.,0.));
#198=DIRECTION('',(0.,0.,-1.));
#199=DIRECTION('',(1.,0.,0.));
#200=DIRECTION('',(0.,0.,-1.));
#201=DIRECTION('',(-1.,0.,0.));
#202=DIRECTION('',(-3.69778549322349E-32,0.,-1.));
#203=DIRECTION('',(1.,0.,0.));
#204=DIRECTION('',(0.,0.,-1.));
#205=DIRECTION('',(-1.,0.,0.));
#206=DIRECTION('',(0.,0.,-1.));
#207=DIRECTION('',(-1.,0.,0.));
#208=DIRECTION('',(0.,0.,-1.));
#209=DIRECTION('',(1.,0.,0.));
#210=DIRECTION('',(0.,0.,-1.));
#211=DIRECTION('',(-1.,0.,0.));
#212=DIRECTION('',(0.,0.,1.));
#213=DIRECTION('',(-1.,0.,0.));
#214=DIRECTION('',(0.,0.,-1.));
#215=DIRECTION('',(-1.,0.,0.));
#216=DIRECTION('',(0.,0.,-1.));
#217=DIRECTION('',(1.,0.,6.90437204368881E-18));
#218=DIRECTION('',(0.,0.,1.));
#219=DIRECTION('',(-1.,0.,0.));
#220=DIRECTION('',(0.,0.,-1.));
#221=DIRECTION('',(1.,0.,0.));
#222=DIRECTION('',(0.,0.,-1.));
#223=DIRECTION('',(1.,0.,0.));
#224=CARTESIAN_POINT('',(0.,0.,0.));
#225=CARTESIAN_POINT('',(0.,0.,40.));
#226=CARTESIAN_POINT('',(0.,0.,0.));
#227=CARTESIAN_POINT('',(0.,0.,-49.));
#228=CARTESIAN_POINT('CRP',(-5.,0.,-49.));
#229=CARTESIAN_POINT('',(-5.,0.,-36.5));
#230=CARTESIAN_POINT('',(-5.,0.,-37.1491576825128));
#231=CARTESIAN_POINT('',(-5.,0.,-37.7983153650256));
#232=CARTESIAN_POINT('',(-5.,0.,-38.4474730475384));
#233=CARTESIAN_POINT('',(-5.,0.,-38.9000783963522));
#234=CARTESIAN_POINT('',(-4.93891931877437,0.,-39.348543280324));
#235=CARTESIAN_POINT('',(-4.81787549686389,0.,-39.7846625242838));
#236=CARTESIAN_POINT('',(-4.04784705664863,0.,-42.5590645207992));
#237=CARTESIAN_POINT('',(-3.04162820792676,0.,-45.2567994717322));
#238=CARTESIAN_POINT('',(-1.80670331132396,0.,-47.8578013434654));
#239=CARTESIAN_POINT('',(-1.46596260558472,0.,-48.5754702606939));
#240=CARTESIAN_POINT('',(-0.79445132217373,0.,-49.));
#241=CARTESIAN_POINT('',(-1.22464679914735E-16,0.,-49.));
#242=CARTESIAN_POINT('',(0.,0.,-44.8333333333333));
#243=CARTESIAN_POINT('',(0.,0.,-40.6666666666667));
#244=CARTESIAN_POINT('',(0.,0.,-36.5));
#245=CARTESIAN_POINT('',(-1.66666666666667,0.,-36.5));
#246=CARTESIAN_POINT('',(-3.33333333333333,0.,-36.5));
#247=CARTESIAN_POINT('',(-5.,0.,-36.5));
#248=CARTESIAN_POINT('',(0.,0.,40.));
#249=CARTESIAN_POINT('',(0.,0.,0.));
#250=CARTESIAN_POINT('',(0.,0.,-49.));
#251=CARTESIAN_POINT('',(0.,0.,-36.5));
#252=CARTESIAN_POINT('',(-5.,0.,-36.5));
#253=CARTESIAN_POINT('',(0.,0.,-38.4474730475384));
#254=CARTESIAN_POINT('',(-5.00000000000001,0.,-38.4474730475384));
#255=CARTESIAN_POINT('',(0.,0.,0.));
#256=CARTESIAN_POINT('',(0.,0.,-47.8578013434654));
#257=CARTESIAN_POINT('',(-1.80670331132397,0.,-47.8578013434654));
#258=CARTESIAN_POINT('',(0.,0.,-47.));
#259=CARTESIAN_POINT('',(0.,0.,-39.7846625242838));
#260=CARTESIAN_POINT('',(-4.8178754968639,0.,-39.7846625242838));
#261=CARTESIAN_POINT('',(-1.80670331132396,0.,-47.8578013434654));
#262=CARTESIAN_POINT('',(-1.80670331132396,3.61340662264792,-47.8578013434654));
#263=CARTESIAN_POINT('',(1.80670331132396,3.61340662264792,-47.8578013434654));
#264=CARTESIAN_POINT('',(1.80670331132396,0.,-47.8578013434654));
#265=CARTESIAN_POINT('',(1.80670331132396,-3.61340662264792,-47.8578013434654));
#266=CARTESIAN_POINT('',(-1.80670331132396,-3.61340662264792,-47.8578013434654));
#267=CARTESIAN_POINT('',(-1.80670331132396,0.,-47.8578013434654));
#268=CARTESIAN_POINT('',(-3.04162820792676,0.,-45.2567994717322));
#269=CARTESIAN_POINT('',(-3.04162820792676,6.08325641585351,-45.2567994717322));
#270=CARTESIAN_POINT('',(3.04162820792676,6.08325641585351,-45.2567994717322));
#271=CARTESIAN_POINT('',(3.04162820792676,0.,-45.2567994717322));
#272=CARTESIAN_POINT('',(3.04162820792676,-6.08325641585351,-45.2567994717322));
#273=CARTESIAN_POINT('',(-3.04162820792676,-6.08325641585351,-45.2567994717322));
#274=CARTESIAN_POINT('',(-3.04162820792676,0.,-45.2567994717322));
#275=CARTESIAN_POINT('',(-4.0478470566486,0.,-42.5590645207992));
#276=CARTESIAN_POINT('',(-4.0478470566486,8.09569411329721,-42.5590645207992));
#277=CARTESIAN_POINT('',(4.0478470566486,8.09569411329721,-42.5590645207992));
#278=CARTESIAN_POINT('',(4.0478470566486,0.,-42.5590645207992));
#279=CARTESIAN_POINT('',(4.0478470566486,-8.09569411329721,-42.5590645207992));
#280=CARTESIAN_POINT('',(-4.0478470566486,-8.09569411329721,-42.5590645207992));
#281=CARTESIAN_POINT('',(-4.0478470566486,0.,-42.5590645207992));
#282=CARTESIAN_POINT('',(-4.8178754968639,0.,-39.7846625242838));
#283=CARTESIAN_POINT('',(-4.8178754968639,9.63575099372781,-39.7846625242838));
#284=CARTESIAN_POINT('',(4.8178754968639,9.63575099372781,-39.7846625242838));
#285=CARTESIAN_POINT('',(4.8178754968639,0.,-39.7846625242838));
#286=CARTESIAN_POINT('',(4.8178754968639,-9.63575099372781,-39.7846625242838));
#287=CARTESIAN_POINT('',(-4.8178754968639,-9.63575099372781,-39.7846625242838));
#288=CARTESIAN_POINT('',(-4.8178754968639,0.,-39.7846625242838));
#289=CARTESIAN_POINT('',(6.93889390390723E-15,0.,-38.4474730475384));
#290=CARTESIAN_POINT('',(0.,0.,-36.5));
#291=CARTESIAN_POINT('',(0.,0.,40.));
#292=CARTESIAN_POINT('',(-4.29999999999999,0.,40.));
#293=CARTESIAN_POINT('',(4.29999999999999,0.,40.));
#294=CARTESIAN_POINT('',(0.,0.,39.3));
#295=CARTESIAN_POINT('',(-5.,0.,39.3));
#296=CARTESIAN_POINT('',(0.,0.,39.3));
#297=CARTESIAN_POINT('',(0.,0.,-36.5));
#298=CARTESIAN_POINT('',(-5.,0.,-36.5));
#299=CARTESIAN_POINT('',(0.,0.,0.));
#300=CARTESIAN_POINT('',(0.,0.,-36.5));
#301=MECHANICAL_DESIGN_GEOMETRIC_PRESENTATION_REPRESENTATION('',(#135,#136,
#137,#138,#139,#140,#141,#142,#143,#144),#302);
#302=(
GEOMETRIC_REPRESENTATION_CONTEXT(3)
GLOBAL_UNCERTAINTY_ASSIGNED_CONTEXT((#303))
GLOBAL_UNIT_ASSIGNED_CONTEXT((#309,#305,#304))
REPRESENTATION_CONTEXT('JH724100T2R2R050','TOP_LEVEL_ASSEMBLY_PART')
);
#303=UNCERTAINTY_MEASURE_WITH_UNIT(LENGTH_MEASURE(0.0254),#309,
'DISTANCE_ACCURACY_VALUE','Maximum Tolerance applied to model');
#304=(
NAMED_UNIT(*)
SI_UNIT($,.STERADIAN.)
SOLID_ANGLE_UNIT()
);
#305=(
CONVERSION_BASED_UNIT('DEGREE',#307)
NAMED_UNIT(#306)
PLANE_ANGLE_UNIT()
);
#306=DIMENSIONAL_EXPONENTS(0.,0.,0.,0.,0.,0.,0.);
#307=PLANE_ANGLE_MEASURE_WITH_UNIT(PLANE_ANGLE_MEASURE(0.0174532925),#308);
#308=(
NAMED_UNIT(*)
PLANE_ANGLE_UNIT()
SI_UNIT($,.RADIAN.)
);
#309=(
LENGTH_UNIT()
NAMED_UNIT(*)
SI_UNIT(.MILLI.,.METRE.)
);
ENDSEC;
END-ISO-10303-21;
