ISO-10303-21;
HEADER;
/* Generated by software containing ST-Developer
 * from STEP Tools, Inc. (www.steptools.com) 
 */
/* OPTION: using custom schema-name function */

FILE_DESCRIPTION(
/* description */ (''),
/* implementation_level */ '2;1');

FILE_NAME(
/* name */ 'JHP751200E2R080.3Z4_Basic.stp',
/* time_stamp */ '2021-09-22T16:33:02+05:00',
/* author */ (''),
/* organization */ (''),
/* preprocessor_version */ 'ST-DEVELOPER v16.7',
/* originating_system */ 'SIEMENS PLM Software NX 12.0',
/* authorisation */ '');

FILE_SCHEMA (('AUTOMOTIVE_DESIGN { 1 0 10303 214 3 1 1 1 }'));
ENDSEC;

DATA;
#10=CONSTRUCTIVE_GEOMETRY_REPRESENTATION_RELATIONSHIP(
'supplemental geometry','',#34,#11);
#11=CONSTRUCTIVE_GEOMETRY_REPRESENTATION('supplemental geometry',(#234,
#235,#236),#382);
#12=GEOMETRICALLY_BOUNDED_WIREFRAME_SHAPE_REPRESENTATION(
'JHP751200E2R080.3Z4_Basic-None',(#35),#382);
#13=PROPERTY_DEFINITION_REPRESENTATION(#17,#15);
#14=PROPERTY_DEFINITION_REPRESENTATION(#18,#16);
#15=REPRESENTATION('',(#19),#382);
#16=REPRESENTATION('',(#20),#382);
#17=PROPERTY_DEFINITION('pmi validation property','',#25);
#18=PROPERTY_DEFINITION('pmi validation property','',#25);
#19=VALUE_REPRESENTATION_ITEM('number of annotations',COUNT_MEASURE(0.));
#20=VALUE_REPRESENTATION_ITEM('number of views',COUNT_MEASURE(0.));
#21=SHAPE_REPRESENTATION_RELATIONSHIP('None',
'relationship between JHP751200E2R080.3Z4_Basic-None and JHP751200E2R0
80.3Z4_Basic-None',#34,#23);
#22=SHAPE_REPRESENTATION_RELATIONSHIP('None',
'relationship between JHP751200E2R080.3Z4_Basic-None and JHP751200E2R0
80.3Z4_Basic-None',#34,#12);
#23=ADVANCED_BREP_SHAPE_REPRESENTATION('JHP751200E2R080.3Z4_Basic-None',
(#55,#56,#57),#382);
#24=SHAPE_DEFINITION_REPRESENTATION(#25,#34);
#25=PRODUCT_DEFINITION_SHAPE('','',#26);
#26=PRODUCT_DEFINITION(' ','',#28,#27);
#27=PRODUCT_DEFINITION_CONTEXT('part definition',#33,'design');
#28=PRODUCT_DEFINITION_FORMATION_WITH_SPECIFIED_SOURCE(' ',' ',#30,
 .NOT_KNOWN.);
#29=PRODUCT_RELATED_PRODUCT_CATEGORY('part','',(#30));
#30=PRODUCT('INPU4A9076B6gme1','INPU4A9076B6gme1',' ',(#31));
#31=PRODUCT_CONTEXT(' ',#33,'mechanical');
#32=APPLICATION_PROTOCOL_DEFINITION('international standard',
'automotive_design',2010,#33);
#33=APPLICATION_CONTEXT(
'core data for automotive mechanical design processes');
#34=SHAPE_REPRESENTATION('JHP751200E2R080.3Z4_Basic-None',(#233),#382);
#35=GEOMETRIC_CURVE_SET('None',(#321,#322,#323,#324,#196));
#36=VERTEX_LOOP('',#162);
#37=TOROIDAL_SURFACE('',#249,5.99657917293445,4.);
#38=TOROIDAL_SURFACE('',#252,14.7,5.);
#39=TOROIDAL_SURFACE('',#258,9.2,0.800000000000005);
#40=SURFACE_STYLE_USAGE(.BOTH.,#43);
#41=SURFACE_STYLE_USAGE(.BOTH.,#44);
#42=SURFACE_STYLE_USAGE(.BOTH.,#45);
#43=SURFACE_SIDE_STYLE('',(#46));
#44=SURFACE_SIDE_STYLE('',(#47));
#45=SURFACE_SIDE_STYLE('',(#48));
#46=SURFACE_STYLE_FILL_AREA(#49);
#47=SURFACE_STYLE_FILL_AREA(#50);
#48=SURFACE_STYLE_FILL_AREA(#51);
#49=FILL_AREA_STYLE('',(#52));
#50=FILL_AREA_STYLE('',(#53));
#51=FILL_AREA_STYLE('',(#54));
#52=FILL_AREA_STYLE_COLOUR('',#231);
#53=FILL_AREA_STYLE_COLOUR('',#231);
#54=FILL_AREA_STYLE_COLOUR('',#232);
#55=MANIFOLD_SOLID_BREP('NOCUT',#58);
#56=MANIFOLD_SOLID_BREP('NOCUT',#59);
#57=MANIFOLD_SOLID_BREP('CUT',#60);
#58=CLOSED_SHELL('',(#85,#86,#87,#88));
#59=CLOSED_SHELL('',(#89,#90,#91,#92,#93,#94));
#60=CLOSED_SHELL('',(#95,#96,#97,#98));
#61=CYLINDRICAL_SURFACE('',#242,10.);
#62=CYLINDRICAL_SURFACE('',#246,10.);
#63=CYLINDRICAL_SURFACE('',#251,9.7);
#64=CONICAL_SURFACE('',#240,10.,45.);
#65=CONICAL_SURFACE('',#256,3.5527136788005E-15,88.9999999999998);
#66=CONICAL_SURFACE('',#260,9.99999999695384,0.00500000000001048);
#67=FACE_BOUND('',#110,.T.);
#68=FACE_BOUND('',#111,.T.);
#69=FACE_BOUND('',#112,.T.);
#70=FACE_BOUND('',#113,.T.);
#71=FACE_BOUND('',#115,.T.);
#72=FACE_BOUND('',#116,.T.);
#73=FACE_BOUND('',#117,.T.);
#74=FACE_BOUND('',#118,.T.);
#75=FACE_BOUND('',#119,.T.);
#76=FACE_BOUND('',#120,.T.);
#77=FACE_BOUND('',#121,.T.);
#78=FACE_BOUND('',#122,.T.);
#79=FACE_BOUND('',#125,.T.);
#80=FACE_BOUND('',#36,.T.);
#81=FACE_BOUND('',#126,.T.);
#82=FACE_BOUND('',#127,.T.);
#83=FACE_BOUND('',#128,.T.);
#84=FACE_BOUND('',#129,.T.);
#85=ADVANCED_FACE('',(#104),#99,.T.);
#86=ADVANCED_FACE('',(#67,#68),#64,.T.);
#87=ADVANCED_FACE('',(#69,#70),#61,.T.);
#88=ADVANCED_FACE('',(#105),#100,.F.);
#89=ADVANCED_FACE('',(#71,#72),#62,.T.);
#90=ADVANCED_FACE('',(#73,#74),#37,.T.);
#91=ADVANCED_FACE('',(#75,#76),#63,.T.);
#92=ADVANCED_FACE('',(#77,#78),#38,.F.);
#93=ADVANCED_FACE('',(#106),#101,.T.);
#94=ADVANCED_FACE('',(#107),#102,.T.);
#95=ADVANCED_FACE('',(#79,#80),#65,.F.);
#96=ADVANCED_FACE('',(#81,#82),#39,.T.);
#97=ADVANCED_FACE('',(#83,#84),#66,.T.);
#98=ADVANCED_FACE('',(#108),#103,.F.);
#99=PLANE('',#238);
#100=PLANE('',#243);
#101=PLANE('',#253);
#102=PLANE('',#254);
#103=PLANE('',#261);
#104=FACE_OUTER_BOUND('',#109,.T.);
#105=FACE_OUTER_BOUND('',#114,.T.);
#106=FACE_OUTER_BOUND('',#123,.T.);
#107=FACE_OUTER_BOUND('',#124,.T.);
#108=FACE_OUTER_BOUND('',#130,.T.);
#109=EDGE_LOOP('',(#131));
#110=EDGE_LOOP('',(#132));
#111=EDGE_LOOP('',(#133));
#112=EDGE_LOOP('',(#134));
#113=EDGE_LOOP('',(#135));
#114=EDGE_LOOP('',(#136));
#115=EDGE_LOOP('',(#137));
#116=EDGE_LOOP('',(#138));
#117=EDGE_LOOP('',(#139));
#118=EDGE_LOOP('',(#140));
#119=EDGE_LOOP('',(#141));
#120=EDGE_LOOP('',(#142));
#121=EDGE_LOOP('',(#143));
#122=EDGE_LOOP('',(#144));
#123=EDGE_LOOP('',(#145));
#124=EDGE_LOOP('',(#146));
#125=EDGE_LOOP('',(#147));
#126=EDGE_LOOP('',(#148));
#127=EDGE_LOOP('',(#149));
#128=EDGE_LOOP('',(#150));
#129=EDGE_LOOP('',(#151));
#130=EDGE_LOOP('',(#152));
#131=ORIENTED_EDGE('',*,*,#165,.F.);
#132=ORIENTED_EDGE('',*,*,#165,.T.);
#133=ORIENTED_EDGE('',*,*,#166,.F.);
#134=ORIENTED_EDGE('',*,*,#167,.F.);
#135=ORIENTED_EDGE('',*,*,#166,.T.);
#136=ORIENTED_EDGE('',*,*,#167,.T.);
#137=ORIENTED_EDGE('',*,*,#168,.F.);
#138=ORIENTED_EDGE('',*,*,#169,.F.);
#139=ORIENTED_EDGE('',*,*,#170,.T.);
#140=ORIENTED_EDGE('',*,*,#171,.F.);
#141=ORIENTED_EDGE('',*,*,#172,.T.);
#142=ORIENTED_EDGE('',*,*,#170,.F.);
#143=ORIENTED_EDGE('',*,*,#168,.T.);
#144=ORIENTED_EDGE('',*,*,#172,.F.);
#145=ORIENTED_EDGE('',*,*,#169,.T.);
#146=ORIENTED_EDGE('',*,*,#171,.T.);
#147=ORIENTED_EDGE('',*,*,#173,.T.);
#148=ORIENTED_EDGE('',*,*,#174,.T.);
#149=ORIENTED_EDGE('',*,*,#173,.F.);
#150=ORIENTED_EDGE('',*,*,#175,.F.);
#151=ORIENTED_EDGE('',*,*,#174,.F.);
#152=ORIENTED_EDGE('',*,*,#175,.T.);
#153=VERTEX_POINT('',#345);
#154=VERTEX_POINT('',#348);
#155=VERTEX_POINT('',#351);
#156=VERTEX_POINT('',#355);
#157=VERTEX_POINT('',#357);
#158=VERTEX_POINT('',#360);
#159=VERTEX_POINT('',#362);
#160=VERTEX_POINT('',#365);
#161=VERTEX_POINT('',#371);
#162=VERTEX_POINT('',#372);
#163=VERTEX_POINT('',#375);
#164=VERTEX_POINT('',#378);
#165=EDGE_CURVE('',#153,#153,#176,.T.);
#166=EDGE_CURVE('',#154,#154,#177,.T.);
#167=EDGE_CURVE('',#155,#155,#178,.T.);
#168=EDGE_CURVE('',#156,#156,#179,.T.);
#169=EDGE_CURVE('',#157,#157,#180,.T.);
#170=EDGE_CURVE('',#158,#158,#181,.T.);
#171=EDGE_CURVE('',#159,#159,#182,.T.);
#172=EDGE_CURVE('',#160,#160,#183,.T.);
#173=EDGE_CURVE('',#161,#161,#184,.T.);
#174=EDGE_CURVE('',#163,#163,#185,.T.);
#175=EDGE_CURVE('',#164,#164,#186,.T.);
#176=CIRCLE('',#237,8.5);
#177=CIRCLE('',#239,10.);
#178=CIRCLE('',#241,10.);
#179=CIRCLE('',#244,10.);
#180=CIRCLE('',#245,10.);
#181=CIRCLE('',#247,9.7);
#182=CIRCLE('',#248,9.99657915770358);
#183=CIRCLE('',#250,9.7);
#184=CIRCLE('',#255,9.18603807485018);
#185=CIRCLE('',#257,9.99999999695384);
#186=CIRCLE('',#259,9.99657915770358);
#187=CURVE_STYLE('',#192,POSITIVE_LENGTH_MEASURE(0.18),#191);
#188=CURVE_STYLE('',#193,POSITIVE_LENGTH_MEASURE(0.18),#229);
#189=CURVE_STYLE('',#194,POSITIVE_LENGTH_MEASURE(0.18),#229);
#190=CURVE_STYLE('',#195,POSITIVE_LENGTH_MEASURE(0.18),#229);
#191=DRAUGHTING_PRE_DEFINED_COLOUR('blue');
#192=DRAUGHTING_PRE_DEFINED_CURVE_FONT('continuous');
#193=DRAUGHTING_PRE_DEFINED_CURVE_FONT('continuous');
#194=DRAUGHTING_PRE_DEFINED_CURVE_FONT('continuous');
#195=DRAUGHTING_PRE_DEFINED_CURVE_FONT('continuous');
#196=TRIMMED_CURVE('CUTTING PART LINE',#197,(PARAMETER_VALUE(0.)),(
PARAMETER_VALUE(1.)),.T.,.PARAMETER.);
#197=(
BOUNDED_CURVE()
B_SPLINE_CURVE(3,(#325,#326,#327,#328,#329,#330,#331,#332,#333,#334,#335,
#336,#337,#338,#339,#340),.UNSPECIFIED.,.T.,.F.)
B_SPLINE_CURVE_WITH_KNOTS((4,3,3,3,3,4),(0.,0.393992307009933,0.406763605500756,
0.499105087036893,0.899525962143546,1.),.UNSPECIFIED.)
CURVE()
GEOMETRIC_REPRESENTATION_ITEM()
RATIONAL_B_SPLINE_CURVE((1.,1.,1.,1.,0.800585428140577,0.800585428140577,
1.,1.,1.,1.,1.,1.,1.,1.,1.,1.))
REPRESENTATION_ITEM('CUTTING PART LINE')
);
#198=PRESENTATION_LAYER_ASSIGNMENT('1','Layer 1',(#321,#322,#323,#324,#196,
#234,#235,#236,#55,#56,#57));
#199=STYLED_ITEM('',(#210),#321);
#200=STYLED_ITEM('',(#211),#322);
#201=STYLED_ITEM('',(#212),#323);
#202=STYLED_ITEM('',(#213),#324);
#203=STYLED_ITEM('',(#214),#196);
#204=STYLED_ITEM('',(#215),#234);
#205=STYLED_ITEM('',(#216),#235);
#206=STYLED_ITEM('',(#217),#236);
#207=STYLED_ITEM('',(#218),#55);
#208=STYLED_ITEM('',(#219),#56);
#209=STYLED_ITEM('',(#220),#57);
#210=PRESENTATION_STYLE_ASSIGNMENT((#221));
#211=PRESENTATION_STYLE_ASSIGNMENT((#222));
#212=PRESENTATION_STYLE_ASSIGNMENT((#223));
#213=PRESENTATION_STYLE_ASSIGNMENT((#224));
#214=PRESENTATION_STYLE_ASSIGNMENT((#187));
#215=PRESENTATION_STYLE_ASSIGNMENT((#188));
#216=PRESENTATION_STYLE_ASSIGNMENT((#189));
#217=PRESENTATION_STYLE_ASSIGNMENT((#190));
#218=PRESENTATION_STYLE_ASSIGNMENT((#40));
#219=PRESENTATION_STYLE_ASSIGNMENT((#41));
#220=PRESENTATION_STYLE_ASSIGNMENT((#42));
#221=POINT_STYLE('',#225,POSITIVE_LENGTH_MEASURE(3.),#229);
#222=POINT_STYLE('',#226,POSITIVE_LENGTH_MEASURE(3.),#229);
#223=POINT_STYLE('',#227,POSITIVE_LENGTH_MEASURE(3.),#229);
#224=POINT_STYLE('',#228,POSITIVE_LENGTH_MEASURE(3.),#230);
#225=PRE_DEFINED_POINT_MARKER_SYMBOL('plus');
#226=PRE_DEFINED_POINT_MARKER_SYMBOL('plus');
#227=PRE_DEFINED_POINT_MARKER_SYMBOL('plus');
#228=PRE_DEFINED_POINT_MARKER_SYMBOL('plus');
#229=COLOUR_RGB('Pale Maroon',0.811749446860456,0.603921568627451,0.611749446860456);
#230=COLOUR_RGB('Medium Royal',0.2,0.4,0.8);
#231=COLOUR_RGB('Medium Gray',0.490196078431373,0.490196078431373,0.490196078431373);
#232=COLOUR_RGB('Light Gray',0.8,0.8,0.8);
#233=AXIS2_PLACEMENT_3D('',#320,#262,#263);
#234=AXIS2_PLACEMENT_3D('PCS',#341,#264,#265);
#235=AXIS2_PLACEMENT_3D('MCS',#342,#266,#267);
#236=AXIS2_PLACEMENT_3D('CIP',#343,#268,#269);
#237=AXIS2_PLACEMENT_3D('',#344,#270,#271);
#238=AXIS2_PLACEMENT_3D('',#346,#272,#273);
#239=AXIS2_PLACEMENT_3D('',#347,#274,#275);
#240=AXIS2_PLACEMENT_3D('',#349,#276,#277);
#241=AXIS2_PLACEMENT_3D('',#350,#278,#279);
#242=AXIS2_PLACEMENT_3D('',#352,#280,#281);
#243=AXIS2_PLACEMENT_3D('',#353,#282,#283);
#244=AXIS2_PLACEMENT_3D('',#354,#284,#285);
#245=AXIS2_PLACEMENT_3D('',#356,#286,#287);
#246=AXIS2_PLACEMENT_3D('',#358,#288,#289);
#247=AXIS2_PLACEMENT_3D('',#359,#290,#291);
#248=AXIS2_PLACEMENT_3D('',#361,#292,#293);
#249=AXIS2_PLACEMENT_3D('',#363,#294,#295);
#250=AXIS2_PLACEMENT_3D('',#364,#296,#297);
#251=AXIS2_PLACEMENT_3D('',#366,#298,#299);
#252=AXIS2_PLACEMENT_3D('',#367,#300,#301);
#253=AXIS2_PLACEMENT_3D('',#368,#302,#303);
#254=AXIS2_PLACEMENT_3D('',#369,#304,#305);
#255=AXIS2_PLACEMENT_3D('',#370,#306,#307);
#256=AXIS2_PLACEMENT_3D('',#373,#308,#309);
#257=AXIS2_PLACEMENT_3D('',#374,#310,#311);
#258=AXIS2_PLACEMENT_3D('',#376,#312,#313);
#259=AXIS2_PLACEMENT_3D('',#377,#314,#315);
#260=AXIS2_PLACEMENT_3D('',#379,#316,#317);
#261=AXIS2_PLACEMENT_3D('',#380,#318,#319);
#262=DIRECTION('',(0.,0.,1.));
#263=DIRECTION('',(1.,0.,0.));
#264=DIRECTION('',(0.,0.,1.));
#265=DIRECTION('',(1.,0.,0.));
#266=DIRECTION('',(0.,0.,1.));
#267=DIRECTION('',(1.,0.,0.));
#268=DIRECTION('',(0.,0.,1.));
#269=DIRECTION('',(1.,0.,0.));
#270=DIRECTION('',(0.,0.,-1.));
#271=DIRECTION('',(-1.,0.,0.));
#272=DIRECTION('',(0.,0.,1.));
#273=DIRECTION('',(-1.,0.,0.));
#274=DIRECTION('',(0.,0.,-1.));
#275=DIRECTION('',(-1.,0.,0.));
#276=DIRECTION('',(0.,0.,-1.));
#277=DIRECTION('',(1.,0.,-1.37403839681331E-17));
#278=DIRECTION('',(0.,0.,-1.));
#279=DIRECTION('',(1.,0.,0.));
#280=DIRECTION('',(0.,0.,-1.));
#281=DIRECTION('',(1.,0.,0.));
#282=DIRECTION('',(0.,0.,1.));
#283=DIRECTION('',(-1.,0.,0.));
#284=DIRECTION('',(0.,0.,-1.));
#285=DIRECTION('',(-1.,0.,0.));
#286=DIRECTION('',(0.,0.,1.));
#287=DIRECTION('',(1.,0.,0.));
#288=DIRECTION('',(0.,0.,-1.));
#289=DIRECTION('',(1.,0.,0.));
#290=DIRECTION('',(0.,0.,-1.));
#291=DIRECTION('',(-1.,0.,0.));
#292=DIRECTION('',(0.,0.,-1.));
#293=DIRECTION('',(-1.,0.,0.));
#294=DIRECTION('',(0.,0.,-1.));
#295=DIRECTION('',(1.,0.,0.));
#296=DIRECTION('',(0.,0.,-1.));
#297=DIRECTION('',(-1.,0.,0.));
#298=DIRECTION('',(0.,0.,-1.));
#299=DIRECTION('',(1.,0.,0.));
#300=DIRECTION('',(0.,0.,-1.));
#301=DIRECTION('',(1.,0.,0.));
#302=DIRECTION('',(0.,0.,1.));
#303=DIRECTION('',(-1.,0.,0.));
#304=DIRECTION('',(0.,0.,-1.));
#305=DIRECTION('',(1.,0.,0.));
#306=DIRECTION('',(0.,0.,-1.));
#307=DIRECTION('',(-1.,0.,0.));
#308=DIRECTION('',(0.,0.,-1.));
#309=DIRECTION('',(1.,0.,7.26713061736426E-19));
#310=DIRECTION('',(0.,0.,-1.));
#311=DIRECTION('',(-1.,0.,0.));
#312=DIRECTION('',(0.,0.,-1.));
#313=DIRECTION('',(1.,0.,0.));
#314=DIRECTION('',(0.,0.,1.));
#315=DIRECTION('',(-1.,0.,0.));
#316=DIRECTION('',(0.,0.,-1.));
#317=DIRECTION('',(1.,0.,-2.75154579551449E-15));
#318=DIRECTION('',(0.,0.,-1.));
#319=DIRECTION('',(1.,0.,0.));
#320=CARTESIAN_POINT('',(0.,0.,0.));
#321=CARTESIAN_POINT('',(0.,0.,50.));
#322=CARTESIAN_POINT('',(0.,0.,0.));
#323=CARTESIAN_POINT('',(0.,0.,-79.));
#324=CARTESIAN_POINT('CRP',(-10.,0.,-79.));
#325=CARTESIAN_POINT('',(-9.99657915770359,0.,-39.0000000000157));
#326=CARTESIAN_POINT('',(-9.99771943745367,0.,-52.0666433956241));
#327=CARTESIAN_POINT('',(-9.99885971720376,0.,-65.1332867912326));
#328=CARTESIAN_POINT('',(-9.99999999695384,0.,-78.1999301868356));
#329=CARTESIAN_POINT('',(-10.0000414636174,0.,-78.675103148098));
#330=CARTESIAN_POINT('',(-9.66113866678355,0.,-79.0081710678047));
#331=CARTESIAN_POINT('',(-9.18603807485018,0.,-78.9998781561251));
#332=CARTESIAN_POINT('',(-6.12402538323345,0.,-78.946430525782));
#333=CARTESIAN_POINT('',(-3.06201269161672,0.,-78.8929828954387));
#334=CARTESIAN_POINT('',(1.77635683940025E-15,0.,-78.8395352650955));
#335=CARTESIAN_POINT('',(0.,0.,-65.5596901767303));
#336=CARTESIAN_POINT('',(0.,0.,-52.2798450883652));
#337=CARTESIAN_POINT('',(0.,0.,-39.));
#338=CARTESIAN_POINT('',(-3.33219305256786,0.,-39.));
#339=CARTESIAN_POINT('',(-6.66438610513572,0.,-39.));
#340=CARTESIAN_POINT('',(-9.99657915770358,0.,-39.));
#341=CARTESIAN_POINT('',(0.,0.,50.));
#342=CARTESIAN_POINT('',(0.,0.,0.));
#343=CARTESIAN_POINT('',(0.,0.,-79.));
#344=CARTESIAN_POINT('',(0.,0.,50.));
#345=CARTESIAN_POINT('',(-8.5,0.,50.));
#346=CARTESIAN_POINT('',(8.5,0.,50.));
#347=CARTESIAN_POINT('',(0.,0.,48.5));
#348=CARTESIAN_POINT('',(-10.,0.,48.5));
#349=CARTESIAN_POINT('',(0.,0.,48.5));
#350=CARTESIAN_POINT('',(0.,0.,0.));
#351=CARTESIAN_POINT('',(10.,0.,0.));
#352=CARTESIAN_POINT('',(0.,0.,0.));
#353=CARTESIAN_POINT('',(0.,0.,0.));
#354=CARTESIAN_POINT('',(0.,0.,-2.2941277890768));
#355=CARTESIAN_POINT('',(-10.,0.,-2.2941277890768));
#356=CARTESIAN_POINT('',(0.,0.,0.));
#357=CARTESIAN_POINT('',(10.,0.,0.));
#358=CARTESIAN_POINT('',(0.,0.,0.));
#359=CARTESIAN_POINT('',(0.,0.,-37.4888351963611));
#360=CARTESIAN_POINT('',(-9.7,0.,-37.4888351963611));
#361=CARTESIAN_POINT('',(0.,0.,-39.));
#362=CARTESIAN_POINT('',(-9.99657915770358,0.,-39.));
#363=CARTESIAN_POINT('',(0.,0.,-39.00034906585));
#364=CARTESIAN_POINT('',(0.,0.,-4.00000000000001));
#365=CARTESIAN_POINT('',(-9.7,0.,-4.00000000000001));
#366=CARTESIAN_POINT('',(0.,0.,0.));
#367=CARTESIAN_POINT('',(0.,0.,-4.00000000000001));
#368=CARTESIAN_POINT('',(0.,0.,0.));
#369=CARTESIAN_POINT('',(0.,0.,-39.));
#370=CARTESIAN_POINT('',(0.,0.,-78.9998781561251));
#371=CARTESIAN_POINT('',(-9.18603807485018,0.,-78.9998781561251));
#372=CARTESIAN_POINT('',(3.5527136788005E-15,0.,-78.8395352650955));
#373=CARTESIAN_POINT('',(0.,0.,-78.8395352650955));
#374=CARTESIAN_POINT('',(0.,0.,-78.1999301868301));
#375=CARTESIAN_POINT('',(-9.99999999695384,0.,-78.1999301868301));
#376=CARTESIAN_POINT('',(0.,0.,-78.2));
#377=CARTESIAN_POINT('',(0.,0.,-39.));
#378=CARTESIAN_POINT('',(-9.99657915770358,0.,-39.));
#379=CARTESIAN_POINT('',(0.,0.,-78.1999301868301));
#380=CARTESIAN_POINT('',(0.,0.,-39.));
#381=MECHANICAL_DESIGN_GEOMETRIC_PRESENTATION_REPRESENTATION('',(#199,#200,
#201,#202,#203,#204,#205,#206,#207,#208,#209),#382);
#382=(
GEOMETRIC_REPRESENTATION_CONTEXT(3)
GLOBAL_UNCERTAINTY_ASSIGNED_CONTEXT((#383))
GLOBAL_UNIT_ASSIGNED_CONTEXT((#389,#385,#384))
REPRESENTATION_CONTEXT('JHP751200E2R080','TOP_LEVEL_ASSEMBLY_PART')
);
#383=UNCERTAINTY_MEASURE_WITH_UNIT(LENGTH_MEASURE(2.E-5),#389,
'DISTANCE_ACCURACY_VALUE','Maximum Tolerance applied to model');
#384=(
NAMED_UNIT(*)
SI_UNIT($,.STERADIAN.)
SOLID_ANGLE_UNIT()
);
#385=(
CONVERSION_BASED_UNIT('DEGREE',#387)
NAMED_UNIT(#386)
PLANE_ANGLE_UNIT()
);
#386=DIMENSIONAL_EXPONENTS(0.,0.,0.,0.,0.,0.,0.);
#387=PLANE_ANGLE_MEASURE_WITH_UNIT(PLANE_ANGLE_MEASURE(0.0174532925),#388);
#388=(
NAMED_UNIT(*)
PLANE_ANGLE_UNIT()
SI_UNIT($,.RADIAN.)
);
#389=(
LENGTH_UNIT()
NAMED_UNIT(*)
SI_UNIT(.MILLI.,.METRE.)
);
ENDSEC;
END-ISO-10303-21;
