ISO-10303-21;
HEADER;
/* Generated by software containing ST-Developer
 * from STEP Tools, Inc. (www.steptools.com) 
 */
/* OPTION: using custom schema-name function */

FILE_DESCRIPTION(
/* description */ (''),
/* implementation_level */ '2;1');

FILE_NAME(
/* name */ 'JHP751120E2R310.0Z4_Basic.stp',
/* time_stamp */ '2021-09-22T16:33:04+05:00',
/* author */ (''),
/* organization */ (''),
/* preprocessor_version */ 'ST-DEVELOPER v16.7',
/* originating_system */ 'SIEMENS PLM Software NX 12.0',
/* authorisation */ '');

FILE_SCHEMA (('AUTOMOTIVE_DESIGN { 1 0 10303 214 3 1 1 1 }'));
ENDSEC;

DATA;
#10=CONSTRUCTIVE_GEOMETRY_REPRESENTATION_RELATIONSHIP(
'supplemental geometry','',#34,#11);
#11=CONSTRUCTIVE_GEOMETRY_REPRESENTATION('supplemental geometry',(#234,
#235,#236),#430);
#12=GEOMETRICALLY_BOUNDED_WIREFRAME_SHAPE_REPRESENTATION(
'JHP751120E2R310.0Z4_Basic-None',(#35),#430);
#13=PROPERTY_DEFINITION_REPRESENTATION(#17,#15);
#14=PROPERTY_DEFINITION_REPRESENTATION(#18,#16);
#15=REPRESENTATION('',(#19),#430);
#16=REPRESENTATION('',(#20),#430);
#17=PROPERTY_DEFINITION('pmi validation property','',#25);
#18=PROPERTY_DEFINITION('pmi validation property','',#25);
#19=VALUE_REPRESENTATION_ITEM('number of annotations',COUNT_MEASURE(0.));
#20=VALUE_REPRESENTATION_ITEM('number of views',COUNT_MEASURE(0.));
#21=SHAPE_REPRESENTATION_RELATIONSHIP('None',
'relationship between JHP751120E2R310.0Z4_Basic-None and JHP751120E2R3
10.0Z4_Basic-None',#34,#23);
#22=SHAPE_REPRESENTATION_RELATIONSHIP('None',
'relationship between JHP751120E2R310.0Z4_Basic-None and JHP751120E2R3
10.0Z4_Basic-None',#34,#12);
#23=ADVANCED_BREP_SHAPE_REPRESENTATION('JHP751120E2R310.0Z4_Basic-None',
(#55,#56,#57),#430);
#24=SHAPE_DEFINITION_REPRESENTATION(#25,#34);
#25=PRODUCT_DEFINITION_SHAPE('','',#26);
#26=PRODUCT_DEFINITION(' ','',#28,#27);
#27=PRODUCT_DEFINITION_CONTEXT('part definition',#33,'design');
#28=PRODUCT_DEFINITION_FORMATION_WITH_SPECIFIED_SOURCE(' ',' ',#30,
 .NOT_KNOWN.);
#29=PRODUCT_RELATED_PRODUCT_CATEGORY('part','',(#30));
#30=PRODUCT('INPU4A9076B6gm5j','INPU4A9076B6gm5j',' ',(#31));
#31=PRODUCT_CONTEXT(' ',#33,'mechanical');
#32=APPLICATION_PROTOCOL_DEFINITION('international standard',
'automotive_design',2010,#33);
#33=APPLICATION_CONTEXT(
'core data for automotive mechanical design processes');
#34=SHAPE_REPRESENTATION('JHP751120E2R310.0Z4_Basic-None',(#233),#430);
#35=GEOMETRIC_CURVE_SET('None',(#315,#316,#317,#318,#196));
#36=VERTEX_LOOP('',#162);
#37=TOROIDAL_SURFACE('',#251,10.7,5.);
#38=(
BOUNDED_SURFACE()
B_SPLINE_SURFACE(3,3,((#357,#358,#359,#360,#361,#362,#363),(#364,#365,#366,
#367,#368,#369,#370),(#371,#372,#373,#374,#375,#376,#377),(#378,#379,#380,
#381,#382,#383,#384)),.UNSPECIFIED.,.F.,.T.,.F.)
B_SPLINE_SURFACE_WITH_KNOTS((4,4),(1,3,3,3,1),(0.,1.),(-0.5,0.,0.5,1.,1.5),
 .UNSPECIFIED.)
GEOMETRIC_REPRESENTATION_ITEM()
RATIONAL_B_SPLINE_SURFACE(((1.,0.333333333333333,0.333333333333333,1.,0.333333333333333,
0.333333333333333,1.),(0.983230055729889,0.327743351909963,0.327743351909963,
0.983230055729889,0.327743351909963,0.327743351909963,0.983230055729889),
(0.983230055729889,0.327743351909963,0.327743351909963,0.983230055729889,
0.327743351909963,0.327743351909963,0.983230055729889),(1.,0.333333333333333,
0.333333333333333,1.,0.333333333333333,0.333333333333333,1.)))
REPRESENTATION_ITEM('')
SURFACE()
);
#39=(
BOUNDED_SURFACE()
B_SPLINE_SURFACE(3,3,((#397,#398,#399,#400,#401,#402,#403),(#404,#405,#406,
#407,#408,#409,#410),(#411,#412,#413,#414,#415,#416,#417),(#418,#419,#420,
#421,#422,#423,#424)),.UNSPECIFIED.,.F.,.T.,.F.)
B_SPLINE_SURFACE_WITH_KNOTS((4,4),(1,3,3,3,1),(0.,1.),(-0.5,0.,0.5,1.,1.5),
 .UNSPECIFIED.)
GEOMETRIC_REPRESENTATION_ITEM()
RATIONAL_B_SPLINE_SURFACE(((1.,0.333333333333333,0.333333333333333,1.,0.333333333333333,
0.333333333333333,1.),(0.798506136406037,0.266168712135346,0.266168712135346,
0.798506136406037,0.266168712135346,0.266168712135346,0.798506136406037),
(0.798506136406037,0.266168712135346,0.266168712135346,0.798506136406037,
0.266168712135346,0.266168712135346,0.798506136406037),(1.,0.333333333333333,
0.333333333333333,1.,0.333333333333333,0.333333333333333,1.)))
REPRESENTATION_ITEM('')
SURFACE()
);
#40=SURFACE_STYLE_USAGE(.BOTH.,#43);
#41=SURFACE_STYLE_USAGE(.BOTH.,#44);
#42=SURFACE_STYLE_USAGE(.BOTH.,#45);
#43=SURFACE_SIDE_STYLE('',(#46));
#44=SURFACE_SIDE_STYLE('',(#47));
#45=SURFACE_SIDE_STYLE('',(#48));
#46=SURFACE_STYLE_FILL_AREA(#49);
#47=SURFACE_STYLE_FILL_AREA(#50);
#48=SURFACE_STYLE_FILL_AREA(#51);
#49=FILL_AREA_STYLE('',(#52));
#50=FILL_AREA_STYLE('',(#53));
#51=FILL_AREA_STYLE('',(#54));
#52=FILL_AREA_STYLE_COLOUR('',#231);
#53=FILL_AREA_STYLE_COLOUR('',#231);
#54=FILL_AREA_STYLE_COLOUR('',#232);
#55=MANIFOLD_SOLID_BREP('NOCUT',#58);
#56=MANIFOLD_SOLID_BREP('NOCUT',#59);
#57=MANIFOLD_SOLID_BREP('CUT',#60);
#58=CLOSED_SHELL('',(#85,#86,#87,#88));
#59=CLOSED_SHELL('',(#89,#90,#91,#92,#93,#94));
#60=CLOSED_SHELL('',(#95,#96,#97,#98));
#61=CYLINDRICAL_SURFACE('',#242,6.);
#62=CYLINDRICAL_SURFACE('',#246,6.);
#63=CYLINDRICAL_SURFACE('',#250,5.7);
#64=CONICAL_SURFACE('',#240,6.,45.);
#65=CONICAL_SURFACE('',#255,1.77635683940025E-15,88.5);
#66=CONICAL_SURFACE('',#258,5.99999998819608,0.00499999999999893);
#67=FACE_BOUND('',#110,.T.);
#68=FACE_BOUND('',#111,.T.);
#69=FACE_BOUND('',#112,.T.);
#70=FACE_BOUND('',#113,.T.);
#71=FACE_BOUND('',#115,.T.);
#72=FACE_BOUND('',#116,.T.);
#73=FACE_BOUND('',#117,.T.);
#74=FACE_BOUND('',#118,.T.);
#75=FACE_BOUND('',#119,.T.);
#76=FACE_BOUND('',#120,.T.);
#77=FACE_BOUND('',#121,.T.);
#78=FACE_BOUND('',#122,.T.);
#79=FACE_BOUND('',#125,.T.);
#80=FACE_BOUND('',#36,.T.);
#81=FACE_BOUND('',#126,.T.);
#82=FACE_BOUND('',#127,.T.);
#83=FACE_BOUND('',#128,.T.);
#84=FACE_BOUND('',#129,.T.);
#85=ADVANCED_FACE('',(#104),#99,.T.);
#86=ADVANCED_FACE('',(#67,#68),#64,.T.);
#87=ADVANCED_FACE('',(#69,#70),#61,.T.);
#88=ADVANCED_FACE('',(#105),#100,.F.);
#89=ADVANCED_FACE('',(#71,#72),#62,.T.);
#90=ADVANCED_FACE('',(#73,#74),#38,.T.);
#91=ADVANCED_FACE('',(#75,#76),#63,.T.);
#92=ADVANCED_FACE('',(#77,#78),#37,.F.);
#93=ADVANCED_FACE('',(#106),#101,.T.);
#94=ADVANCED_FACE('',(#107),#102,.T.);
#95=ADVANCED_FACE('',(#79,#80),#65,.F.);
#96=ADVANCED_FACE('',(#81,#82),#39,.T.);
#97=ADVANCED_FACE('',(#83,#84),#66,.T.);
#98=ADVANCED_FACE('',(#108),#103,.F.);
#99=PLANE('',#238);
#100=PLANE('',#243);
#101=PLANE('',#252);
#102=PLANE('',#253);
#103=PLANE('',#259);
#104=FACE_OUTER_BOUND('',#109,.T.);
#105=FACE_OUTER_BOUND('',#114,.T.);
#106=FACE_OUTER_BOUND('',#123,.T.);
#107=FACE_OUTER_BOUND('',#124,.T.);
#108=FACE_OUTER_BOUND('',#130,.T.);
#109=EDGE_LOOP('',(#131));
#110=EDGE_LOOP('',(#132));
#111=EDGE_LOOP('',(#133));
#112=EDGE_LOOP('',(#134));
#113=EDGE_LOOP('',(#135));
#114=EDGE_LOOP('',(#136));
#115=EDGE_LOOP('',(#137));
#116=EDGE_LOOP('',(#138));
#117=EDGE_LOOP('',(#139));
#118=EDGE_LOOP('',(#140));
#119=EDGE_LOOP('',(#141));
#120=EDGE_LOOP('',(#142));
#121=EDGE_LOOP('',(#143));
#122=EDGE_LOOP('',(#144));
#123=EDGE_LOOP('',(#145));
#124=EDGE_LOOP('',(#146));
#125=EDGE_LOOP('',(#147));
#126=EDGE_LOOP('',(#148));
#127=EDGE_LOOP('',(#149));
#128=EDGE_LOOP('',(#150));
#129=EDGE_LOOP('',(#151));
#130=EDGE_LOOP('',(#152));
#131=ORIENTED_EDGE('',*,*,#165,.F.);
#132=ORIENTED_EDGE('',*,*,#165,.T.);
#133=ORIENTED_EDGE('',*,*,#166,.F.);
#134=ORIENTED_EDGE('',*,*,#167,.F.);
#135=ORIENTED_EDGE('',*,*,#166,.T.);
#136=ORIENTED_EDGE('',*,*,#167,.T.);
#137=ORIENTED_EDGE('',*,*,#168,.F.);
#138=ORIENTED_EDGE('',*,*,#169,.F.);
#139=ORIENTED_EDGE('',*,*,#170,.T.);
#140=ORIENTED_EDGE('',*,*,#171,.F.);
#141=ORIENTED_EDGE('',*,*,#172,.T.);
#142=ORIENTED_EDGE('',*,*,#170,.F.);
#143=ORIENTED_EDGE('',*,*,#168,.T.);
#144=ORIENTED_EDGE('',*,*,#172,.F.);
#145=ORIENTED_EDGE('',*,*,#169,.T.);
#146=ORIENTED_EDGE('',*,*,#171,.T.);
#147=ORIENTED_EDGE('',*,*,#173,.T.);
#148=ORIENTED_EDGE('',*,*,#174,.T.);
#149=ORIENTED_EDGE('',*,*,#173,.F.);
#150=ORIENTED_EDGE('',*,*,#175,.F.);
#151=ORIENTED_EDGE('',*,*,#174,.F.);
#152=ORIENTED_EDGE('',*,*,#175,.T.);
#153=VERTEX_POINT('',#339);
#154=VERTEX_POINT('',#342);
#155=VERTEX_POINT('',#345);
#156=VERTEX_POINT('',#349);
#157=VERTEX_POINT('',#351);
#158=VERTEX_POINT('',#354);
#159=VERTEX_POINT('',#356);
#160=VERTEX_POINT('',#386);
#161=VERTEX_POINT('',#392);
#162=VERTEX_POINT('',#393);
#163=VERTEX_POINT('',#396);
#164=VERTEX_POINT('',#426);
#165=EDGE_CURVE('',#153,#153,#176,.T.);
#166=EDGE_CURVE('',#154,#154,#177,.T.);
#167=EDGE_CURVE('',#155,#155,#178,.T.);
#168=EDGE_CURVE('',#156,#156,#179,.T.);
#169=EDGE_CURVE('',#157,#157,#180,.T.);
#170=EDGE_CURVE('',#158,#158,#181,.T.);
#171=EDGE_CURVE('',#159,#159,#182,.T.);
#172=EDGE_CURVE('',#160,#160,#183,.T.);
#173=EDGE_CURVE('',#161,#161,#184,.T.);
#174=EDGE_CURVE('',#163,#163,#185,.T.);
#175=EDGE_CURVE('',#164,#164,#186,.T.);
#176=CIRCLE('',#237,5.);
#177=CIRCLE('',#239,6.);
#178=CIRCLE('',#241,6.);
#179=CIRCLE('',#244,6.);
#180=CIRCLE('',#245,6.);
#181=CIRCLE('',#247,5.7);
#182=CIRCLE('',#248,5.99817614273096);
#183=CIRCLE('',#249,5.7);
#184=CIRCLE('',#254,2.8188514602456);
#185=CIRCLE('',#256,5.99999998819608);
#186=CIRCLE('',#257,5.99817614273096);
#187=CURVE_STYLE('',#192,POSITIVE_LENGTH_MEASURE(0.18),#191);
#188=CURVE_STYLE('',#193,POSITIVE_LENGTH_MEASURE(0.18),#229);
#189=CURVE_STYLE('',#194,POSITIVE_LENGTH_MEASURE(0.18),#229);
#190=CURVE_STYLE('',#195,POSITIVE_LENGTH_MEASURE(0.18),#229);
#191=DRAUGHTING_PRE_DEFINED_COLOUR('blue');
#192=DRAUGHTING_PRE_DEFINED_CURVE_FONT('continuous');
#193=DRAUGHTING_PRE_DEFINED_CURVE_FONT('continuous');
#194=DRAUGHTING_PRE_DEFINED_CURVE_FONT('continuous');
#195=DRAUGHTING_PRE_DEFINED_CURVE_FONT('continuous');
#196=TRIMMED_CURVE('CUTTING PART LINE',#197,(PARAMETER_VALUE(0.)),(
PARAMETER_VALUE(1.)),.T.,.PARAMETER.);
#197=(
BOUNDED_CURVE()
B_SPLINE_CURVE(3,(#319,#320,#321,#322,#323,#324,#325,#326,#327,#328,#329,
#330,#331,#332,#333,#334),.UNSPECIFIED.,.T.,.F.)
B_SPLINE_CURVE_WITH_KNOTS((4,3,3,3,3,4),(0.,0.35668875502389,0.4411840717971,
0.489308966282643,0.897631116456463,1.),.UNSPECIFIED.)
CURVE()
GEOMETRIC_REPRESENTATION_ITEM()
RATIONAL_B_SPLINE_CURVE((1.,1.,1.,1.,0.798506136406038,0.798506136406038,
1.,1.,1.,1.,1.,1.,1.,1.,1.,1.))
REPRESENTATION_ITEM('CUTTING PART LINE')
);
#198=PRESENTATION_LAYER_ASSIGNMENT('1','Layer 1',(#315,#316,#317,#318,#196,
#234,#235,#236,#55,#56,#57));
#199=STYLED_ITEM('',(#210),#315);
#200=STYLED_ITEM('',(#211),#316);
#201=STYLED_ITEM('',(#212),#317);
#202=STYLED_ITEM('',(#213),#318);
#203=STYLED_ITEM('',(#214),#196);
#204=STYLED_ITEM('',(#215),#234);
#205=STYLED_ITEM('',(#216),#235);
#206=STYLED_ITEM('',(#217),#236);
#207=STYLED_ITEM('',(#218),#55);
#208=STYLED_ITEM('',(#219),#56);
#209=STYLED_ITEM('',(#220),#57);
#210=PRESENTATION_STYLE_ASSIGNMENT((#221));
#211=PRESENTATION_STYLE_ASSIGNMENT((#222));
#212=PRESENTATION_STYLE_ASSIGNMENT((#223));
#213=PRESENTATION_STYLE_ASSIGNMENT((#224));
#214=PRESENTATION_STYLE_ASSIGNMENT((#187));
#215=PRESENTATION_STYLE_ASSIGNMENT((#188));
#216=PRESENTATION_STYLE_ASSIGNMENT((#189));
#217=PRESENTATION_STYLE_ASSIGNMENT((#190));
#218=PRESENTATION_STYLE_ASSIGNMENT((#40));
#219=PRESENTATION_STYLE_ASSIGNMENT((#41));
#220=PRESENTATION_STYLE_ASSIGNMENT((#42));
#221=POINT_STYLE('',#225,POSITIVE_LENGTH_MEASURE(3.),#229);
#222=POINT_STYLE('',#226,POSITIVE_LENGTH_MEASURE(3.),#229);
#223=POINT_STYLE('',#227,POSITIVE_LENGTH_MEASURE(3.),#229);
#224=POINT_STYLE('',#228,POSITIVE_LENGTH_MEASURE(3.),#230);
#225=PRE_DEFINED_POINT_MARKER_SYMBOL('plus');
#226=PRE_DEFINED_POINT_MARKER_SYMBOL('plus');
#227=PRE_DEFINED_POINT_MARKER_SYMBOL('plus');
#228=PRE_DEFINED_POINT_MARKER_SYMBOL('plus');
#229=COLOUR_RGB('Pale Maroon',0.811749446860456,0.603921568627451,0.611749446860456);
#230=COLOUR_RGB('Medium Royal',0.2,0.4,0.8);
#231=COLOUR_RGB('Medium Gray',0.490196078431373,0.490196078431373,0.490196078431373);
#232=COLOUR_RGB('Light Gray',0.8,0.8,0.8);
#233=AXIS2_PLACEMENT_3D('',#314,#260,#261);
#234=AXIS2_PLACEMENT_3D('PCS',#335,#262,#263);
#235=AXIS2_PLACEMENT_3D('MCS',#336,#264,#265);
#236=AXIS2_PLACEMENT_3D('CIP',#337,#266,#267);
#237=AXIS2_PLACEMENT_3D('',#338,#268,#269);
#238=AXIS2_PLACEMENT_3D('',#340,#270,#271);
#239=AXIS2_PLACEMENT_3D('',#341,#272,#273);
#240=AXIS2_PLACEMENT_3D('',#343,#274,#275);
#241=AXIS2_PLACEMENT_3D('',#344,#276,#277);
#242=AXIS2_PLACEMENT_3D('',#346,#278,#279);
#243=AXIS2_PLACEMENT_3D('',#347,#280,#281);
#244=AXIS2_PLACEMENT_3D('',#348,#282,#283);
#245=AXIS2_PLACEMENT_3D('',#350,#284,#285);
#246=AXIS2_PLACEMENT_3D('',#352,#286,#287);
#247=AXIS2_PLACEMENT_3D('',#353,#288,#289);
#248=AXIS2_PLACEMENT_3D('',#355,#290,#291);
#249=AXIS2_PLACEMENT_3D('',#385,#292,#293);
#250=AXIS2_PLACEMENT_3D('',#387,#294,#295);
#251=AXIS2_PLACEMENT_3D('',#388,#296,#297);
#252=AXIS2_PLACEMENT_3D('',#389,#298,#299);
#253=AXIS2_PLACEMENT_3D('',#390,#300,#301);
#254=AXIS2_PLACEMENT_3D('',#391,#302,#303);
#255=AXIS2_PLACEMENT_3D('',#394,#304,#305);
#256=AXIS2_PLACEMENT_3D('',#395,#306,#307);
#257=AXIS2_PLACEMENT_3D('',#425,#308,#309);
#258=AXIS2_PLACEMENT_3D('',#427,#310,#311);
#259=AXIS2_PLACEMENT_3D('',#428,#312,#313);
#260=DIRECTION('',(0.,0.,1.));
#261=DIRECTION('',(1.,0.,0.));
#262=DIRECTION('',(0.,0.,1.));
#263=DIRECTION('',(1.,0.,0.));
#264=DIRECTION('',(0.,0.,1.));
#265=DIRECTION('',(1.,0.,0.));
#266=DIRECTION('',(0.,0.,1.));
#267=DIRECTION('',(1.,0.,0.));
#268=DIRECTION('',(0.,0.,-1.));
#269=DIRECTION('',(-1.,0.,0.));
#270=DIRECTION('',(0.,0.,1.));
#271=DIRECTION('',(-1.,0.,0.));
#272=DIRECTION('',(0.,0.,-1.));
#273=DIRECTION('',(-1.,0.,0.));
#274=DIRECTION('',(0.,0.,-1.));
#275=DIRECTION('',(1.,0.,4.13850531048145E-17));
#276=DIRECTION('',(0.,0.,-1.));
#277=DIRECTION('',(1.,0.,0.));
#278=DIRECTION('',(0.,0.,-1.));
#279=DIRECTION('',(1.,0.,0.));
#280=DIRECTION('',(0.,0.,1.));
#281=DIRECTION('',(-1.,0.,0.));
#282=DIRECTION('',(0.,0.,-1.));
#283=DIRECTION('',(-1.,0.,0.));
#284=DIRECTION('',(0.,0.,1.));
#285=DIRECTION('',(1.,0.,0.));
#286=DIRECTION('',(0.,0.,-1.));
#287=DIRECTION('',(1.,0.,0.));
#288=DIRECTION('',(0.,0.,-1.));
#289=DIRECTION('',(-1.,0.,0.));
#290=DIRECTION('',(0.,0.,-1.));
#291=DIRECTION('',(-1.,0.,0.));
#292=DIRECTION('',(0.,0.,-1.));
#293=DIRECTION('',(-1.,0.,0.));
#294=DIRECTION('',(0.,0.,-1.));
#295=DIRECTION('',(1.,0.,0.));
#296=DIRECTION('',(0.,0.,-1.));
#297=DIRECTION('',(1.,0.,0.));
#298=DIRECTION('',(0.,0.,1.));
#299=DIRECTION('',(-1.,0.,0.));
#300=DIRECTION('',(0.,0.,-1.));
#301=DIRECTION('',(1.,0.,0.));
#302=DIRECTION('',(0.,0.,-1.));
#303=DIRECTION('',(-1.,0.,0.));
#304=DIRECTION('',(0.,0.,-1.));
#305=DIRECTION('',(1.,0.,1.81701331544624E-19));
#306=DIRECTION('',(0.,0.,-1.));
#307=DIRECTION('',(-1.,0.,0.));
#308=DIRECTION('',(0.,0.,1.));
#309=DIRECTION('',(-1.,0.,0.));
#310=DIRECTION('',(0.,0.,-1.));
#311=DIRECTION('',(1.,0.,-9.11922480771001E-15));
#312=DIRECTION('',(0.,0.,-1.));
#313=DIRECTION('',(1.,0.,0.));
#314=CARTESIAN_POINT('',(0.,0.,0.));
#315=CARTESIAN_POINT('',(0.,0.,45.));
#316=CARTESIAN_POINT('',(0.,0.,0.));
#317=CARTESIAN_POINT('',(0.,0.,-38.));
#318=CARTESIAN_POINT('CRP',(-6.,0.,-38.));
#319=CARTESIAN_POINT('',(-5.99817614273097,0.,-13.9999999999958));
#320=CARTESIAN_POINT('',(-5.99878409121934,0.,-20.9665764913183));
#321=CARTESIAN_POINT('',(-5.99939203970771,0.,-27.9331529826408));
#322=CARTESIAN_POINT('',(-5.99999998819609,0.,-34.8997294739648));
#323=CARTESIAN_POINT('',(-6.00016177911319,0.,-36.7537168119427));
#324=CARTESIAN_POINT('',(-4.67220349012271,0.,-38.0474694383187));
#325=CARTESIAN_POINT('',(-2.8188514602456,0.,-37.9989377074242));
#326=CARTESIAN_POINT('',(-1.8792343068304,0.,-37.9743329663398));
#327=CARTESIAN_POINT('',(-0.9396171534152,0.,-37.9497282252555));
#328=CARTESIAN_POINT('',(-8.88178419700125E-16,0.,-37.9251234841711));
#329=CARTESIAN_POINT('',(0.,0.,-29.9500823227807));
#330=CARTESIAN_POINT('',(0.,0.,-21.9750411613904));
#331=CARTESIAN_POINT('',(0.,0.,-14.));
#332=CARTESIAN_POINT('',(-1.99939204757699,0.,-14.));
#333=CARTESIAN_POINT('',(-3.99878409515397,0.,-14.));
#334=CARTESIAN_POINT('',(-5.99817614273096,0.,-14.));
#335=CARTESIAN_POINT('',(0.,0.,45.));
#336=CARTESIAN_POINT('',(0.,0.,0.));
#337=CARTESIAN_POINT('',(0.,0.,-38.));
#338=CARTESIAN_POINT('',(0.,0.,45.));
#339=CARTESIAN_POINT('',(-5.,0.,45.));
#340=CARTESIAN_POINT('',(5.,0.,45.));
#341=CARTESIAN_POINT('',(0.,0.,44.));
#342=CARTESIAN_POINT('',(-6.,0.,44.));
#343=CARTESIAN_POINT('',(0.,0.,44.));
#344=CARTESIAN_POINT('',(0.,0.,0.));
#345=CARTESIAN_POINT('',(6.,0.,0.));
#346=CARTESIAN_POINT('',(0.,0.,0.));
#347=CARTESIAN_POINT('',(0.,0.,0.));
#348=CARTESIAN_POINT('',(0.,0.,-1.2941277890768));
#349=CARTESIAN_POINT('',(-6.,0.,-1.2941277890768));
#350=CARTESIAN_POINT('',(0.,0.,0.));
#351=CARTESIAN_POINT('',(6.,0.,0.));
#352=CARTESIAN_POINT('',(0.,0.,0.));
#353=CARTESIAN_POINT('',(0.,0.,-12.6963646002117));
#354=CARTESIAN_POINT('',(-5.7,0.,-12.6963646002117));
#355=CARTESIAN_POINT('',(0.,0.,-14.));
#356=CARTESIAN_POINT('',(-5.99817614273096,0.,-14.));
#357=CARTESIAN_POINT('',(-5.99817614273096,0.,-14.));
#358=CARTESIAN_POINT('',(-5.99817614273096,11.9963522854619,-14.));
#359=CARTESIAN_POINT('',(5.99817614273096,11.9963522854619,-14.));
#360=CARTESIAN_POINT('',(5.99817614273096,0.,-14.));
#361=CARTESIAN_POINT('',(5.99817614273096,-11.9963522854619,-14.));
#362=CARTESIAN_POINT('',(-5.99817614273096,-11.9963522854619,-14.));
#363=CARTESIAN_POINT('',(-5.99817614273096,0.,-14.));
#364=CARTESIAN_POINT('',(-5.99813657873243,0.,-13.5466299738533));
#365=CARTESIAN_POINT('',(-5.99813657873243,11.9962731574649,-13.5466299738533));
#366=CARTESIAN_POINT('',(5.99813657873243,11.9962731574649,-13.5466299738533));
#367=CARTESIAN_POINT('',(5.99813657873243,0.,-13.5466299738533));
#368=CARTESIAN_POINT('',(5.99813657873243,-11.9962731574649,-13.5466299738533));
#369=CARTESIAN_POINT('',(-5.99813657873243,-11.9962731574649,-13.5466299738533));
#370=CARTESIAN_POINT('',(-5.99813657873243,0.,-13.5466299738533));
#371=CARTESIAN_POINT('',(-5.89704930317798,0.,-13.1046732509781));
#372=CARTESIAN_POINT('',(-5.89704930317798,11.794098606356,-13.1046732509781));
#373=CARTESIAN_POINT('',(5.89704930317798,11.794098606356,-13.1046732509781));
#374=CARTESIAN_POINT('',(5.89704930317798,0.,-13.1046732509781));
#375=CARTESIAN_POINT('',(5.89704930317798,-11.794098606356,-13.1046732509781));
#376=CARTESIAN_POINT('',(-5.89704930317798,-11.794098606356,-13.1046732509781));
#377=CARTESIAN_POINT('',(-5.89704930317798,0.,-13.1046732509781));
#378=CARTESIAN_POINT('',(-5.7,0.,-12.6963646002117));
#379=CARTESIAN_POINT('',(-5.7,11.4,-12.6963646002117));
#380=CARTESIAN_POINT('',(5.7,11.4,-12.6963646002117));
#381=CARTESIAN_POINT('',(5.7,0.,-12.6963646002117));
#382=CARTESIAN_POINT('',(5.7,-11.4,-12.6963646002117));
#383=CARTESIAN_POINT('',(-5.7,-11.4,-12.6963646002117));
#384=CARTESIAN_POINT('',(-5.7,0.,-12.6963646002117));
#385=CARTESIAN_POINT('',(0.,0.,-3.00000000000001));
#386=CARTESIAN_POINT('',(-5.7,0.,-3.00000000000001));
#387=CARTESIAN_POINT('',(0.,0.,0.));
#388=CARTESIAN_POINT('',(0.,0.,-3.00000000000001));
#389=CARTESIAN_POINT('',(0.,0.,0.));
#390=CARTESIAN_POINT('',(0.,0.,-14.));
#391=CARTESIAN_POINT('',(0.,0.,-37.9989377074242));
#392=CARTESIAN_POINT('',(-2.8188514602456,0.,-37.9989377074242));
#393=CARTESIAN_POINT('',(-1.77635683940025E-15,0.,-37.9251234841711));
#394=CARTESIAN_POINT('',(0.,0.,-37.9251234841711));
#395=CARTESIAN_POINT('',(0.,0.,-34.8997294739663));
#396=CARTESIAN_POINT('',(-5.99999998819608,0.,-34.8997294739663));
#397=CARTESIAN_POINT('',(-2.8188514602456,0.,-37.9989377074242));
#398=CARTESIAN_POINT('',(-2.8188514602456,5.6377029204912,-37.9989377074242));
#399=CARTESIAN_POINT('',(2.8188514602456,5.6377029204912,-37.9989377074242));
#400=CARTESIAN_POINT('',(2.8188514602456,0.,-37.9989377074242));
#401=CARTESIAN_POINT('',(2.8188514602456,-5.6377029204912,-37.9989377074242));
#402=CARTESIAN_POINT('',(-2.8188514602456,-5.6377029204912,-37.9989377074242));
#403=CARTESIAN_POINT('',(-2.8188514602456,0.,-37.9989377074242));
#404=CARTESIAN_POINT('',(-4.67220349012271,0.,-38.0474694383187));
#405=CARTESIAN_POINT('',(-4.67220349012271,9.34440698024542,-38.0474694383187));
#406=CARTESIAN_POINT('',(4.67220349012271,9.34440698024542,-38.0474694383187));
#407=CARTESIAN_POINT('',(4.67220349012271,0.,-38.0474694383187));
#408=CARTESIAN_POINT('',(4.67220349012271,-9.34440698024542,-38.0474694383187));
#409=CARTESIAN_POINT('',(-4.67220349012271,-9.34440698024542,-38.0474694383187));
#410=CARTESIAN_POINT('',(-4.67220349012271,0.,-38.0474694383187));
#411=CARTESIAN_POINT('',(-6.00016177911319,0.,-36.7537168119427));
#412=CARTESIAN_POINT('',(-6.00016177911319,12.0003235582264,-36.7537168119427));
#413=CARTESIAN_POINT('',(6.00016177911319,12.0003235582264,-36.7537168119427));
#414=CARTESIAN_POINT('',(6.00016177911319,0.,-36.7537168119427));
#415=CARTESIAN_POINT('',(6.00016177911319,-12.0003235582264,-36.7537168119427));
#416=CARTESIAN_POINT('',(-6.00016177911319,-12.0003235582264,-36.7537168119427));
#417=CARTESIAN_POINT('',(-6.00016177911319,0.,-36.7537168119427));
#418=CARTESIAN_POINT('',(-5.99999998819609,0.,-34.8997294739663));
#419=CARTESIAN_POINT('',(-5.99999998819609,11.9999999763922,-34.8997294739663));
#420=CARTESIAN_POINT('',(5.99999998819609,11.9999999763922,-34.8997294739663));
#421=CARTESIAN_POINT('',(5.99999998819609,0.,-34.8997294739663));
#422=CARTESIAN_POINT('',(5.99999998819609,-11.9999999763922,-34.8997294739663));
#423=CARTESIAN_POINT('',(-5.99999998819609,-11.9999999763922,-34.8997294739663));
#424=CARTESIAN_POINT('',(-5.99999998819609,0.,-34.8997294739663));
#425=CARTESIAN_POINT('',(0.,0.,-14.));
#426=CARTESIAN_POINT('',(-5.99817614273096,0.,-14.));
#427=CARTESIAN_POINT('',(0.,0.,-34.8997294739663));
#428=CARTESIAN_POINT('',(0.,0.,-14.));
#429=MECHANICAL_DESIGN_GEOMETRIC_PRESENTATION_REPRESENTATION('',(#199,#200,
#201,#202,#203,#204,#205,#206,#207,#208,#209),#430);
#430=(
GEOMETRIC_REPRESENTATION_CONTEXT(3)
GLOBAL_UNCERTAINTY_ASSIGNED_CONTEXT((#431))
GLOBAL_UNIT_ASSIGNED_CONTEXT((#437,#433,#432))
REPRESENTATION_CONTEXT('JHP751120E2R310','TOP_LEVEL_ASSEMBLY_PART')
);
#431=UNCERTAINTY_MEASURE_WITH_UNIT(LENGTH_MEASURE(0.0254),#437,
'DISTANCE_ACCURACY_VALUE','Maximum Tolerance applied to model');
#432=(
NAMED_UNIT(*)
SI_UNIT($,.STERADIAN.)
SOLID_ANGLE_UNIT()
);
#433=(
CONVERSION_BASED_UNIT('DEGREE',#435)
NAMED_UNIT(#434)
PLANE_ANGLE_UNIT()
);
#434=DIMENSIONAL_EXPONENTS(0.,0.,0.,0.,0.,0.,0.);
#435=PLANE_ANGLE_MEASURE_WITH_UNIT(PLANE_ANGLE_MEASURE(0.0174532925),#436);
#436=(
NAMED_UNIT(*)
PLANE_ANGLE_UNIT()
SI_UNIT($,.RADIAN.)
);
#437=(
LENGTH_UNIT()
NAMED_UNIT(*)
SI_UNIT(.MILLI.,.METRE.)
);
ENDSEC;
END-ISO-10303-21;
