ISO-10303-21;
HEADER;
/* Generated by software containing ST-Developer
 * from STEP Tools, Inc. (www.steptools.com) 
 */
/* OPTION: using custom schema-name function */

FILE_DESCRIPTION(
/* description */ (''),
/* implementation_level */ '2;1');

FILE_NAME(
/* name */ 'JHP751100E2R040.0Z4_Basic.stp',
/* time_stamp */ '2021-09-22T16:33:05+05:00',
/* author */ (''),
/* organization */ (''),
/* preprocessor_version */ 'ST-DEVELOPER v16.7',
/* originating_system */ 'SIEMENS PLM Software NX 12.0',
/* authorisation */ '');

FILE_SCHEMA (('AUTOMOTIVE_DESIGN { 1 0 10303 214 3 1 1 1 }'));
ENDSEC;

DATA;
#10=CONSTRUCTIVE_GEOMETRY_REPRESENTATION_RELATIONSHIP(
'supplemental geometry','',#34,#11);
#11=CONSTRUCTIVE_GEOMETRY_REPRESENTATION('supplemental geometry',(#234,
#235,#236),#382);
#12=GEOMETRICALLY_BOUNDED_WIREFRAME_SHAPE_REPRESENTATION(
'JHP751100E2R040.0Z4_Basic-None',(#35),#382);
#13=PROPERTY_DEFINITION_REPRESENTATION(#17,#15);
#14=PROPERTY_DEFINITION_REPRESENTATION(#18,#16);
#15=REPRESENTATION('',(#19),#382);
#16=REPRESENTATION('',(#20),#382);
#17=PROPERTY_DEFINITION('pmi validation property','',#25);
#18=PROPERTY_DEFINITION('pmi validation property','',#25);
#19=VALUE_REPRESENTATION_ITEM('number of annotations',COUNT_MEASURE(0.));
#20=VALUE_REPRESENTATION_ITEM('number of views',COUNT_MEASURE(0.));
#21=SHAPE_REPRESENTATION_RELATIONSHIP('None',
'relationship between JHP751100E2R040.0Z4_Basic-None and JHP751100E2R0
40.0Z4_Basic-None',#34,#23);
#22=SHAPE_REPRESENTATION_RELATIONSHIP('None',
'relationship between JHP751100E2R040.0Z4_Basic-None and JHP751100E2R0
40.0Z4_Basic-None',#34,#12);
#23=ADVANCED_BREP_SHAPE_REPRESENTATION('JHP751100E2R040.0Z4_Basic-None',
(#55,#56,#57),#382);
#24=SHAPE_DEFINITION_REPRESENTATION(#25,#34);
#25=PRODUCT_DEFINITION_SHAPE('','',#26);
#26=PRODUCT_DEFINITION(' ','',#28,#27);
#27=PRODUCT_DEFINITION_CONTEXT('part definition',#33,'design');
#28=PRODUCT_DEFINITION_FORMATION_WITH_SPECIFIED_SOURCE(' ',' ',#30,
 .NOT_KNOWN.);
#29=PRODUCT_RELATED_PRODUCT_CATEGORY('part','',(#30));
#30=PRODUCT('INPU4A9076B6gm31','INPU4A9076B6gm31',' ',(#31));
#31=PRODUCT_CONTEXT(' ',#33,'mechanical');
#32=APPLICATION_PROTOCOL_DEFINITION('international standard',
'automotive_design',2010,#33);
#33=APPLICATION_CONTEXT(
'core data for automotive mechanical design processes');
#34=SHAPE_REPRESENTATION('JHP751100E2R040.0Z4_Basic-None',(#233),#382);
#35=GEOMETRIC_CURVE_SET('None',(#321,#322,#323,#324,#196));
#36=VERTEX_LOOP('',#162);
#37=TOROIDAL_SURFACE('',#249,2.99828958646723,2.);
#38=TOROIDAL_SURFACE('',#252,9.69999999999999,5.);
#39=TOROIDAL_SURFACE('',#258,4.6,0.400000000000012);
#40=SURFACE_STYLE_USAGE(.BOTH.,#43);
#41=SURFACE_STYLE_USAGE(.BOTH.,#44);
#42=SURFACE_STYLE_USAGE(.BOTH.,#45);
#43=SURFACE_SIDE_STYLE('',(#46));
#44=SURFACE_SIDE_STYLE('',(#47));
#45=SURFACE_SIDE_STYLE('',(#48));
#46=SURFACE_STYLE_FILL_AREA(#49);
#47=SURFACE_STYLE_FILL_AREA(#50);
#48=SURFACE_STYLE_FILL_AREA(#51);
#49=FILL_AREA_STYLE('',(#52));
#50=FILL_AREA_STYLE('',(#53));
#51=FILL_AREA_STYLE('',(#54));
#52=FILL_AREA_STYLE_COLOUR('',#231);
#53=FILL_AREA_STYLE_COLOUR('',#231);
#54=FILL_AREA_STYLE_COLOUR('',#232);
#55=MANIFOLD_SOLID_BREP('NOCUT',#58);
#56=MANIFOLD_SOLID_BREP('NOCUT',#59);
#57=MANIFOLD_SOLID_BREP('CUT',#60);
#58=CLOSED_SHELL('',(#85,#86,#87,#88));
#59=CLOSED_SHELL('',(#89,#90,#91,#92,#93,#94));
#60=CLOSED_SHELL('',(#95,#96,#97,#98));
#61=CYLINDRICAL_SURFACE('',#242,5.);
#62=CYLINDRICAL_SURFACE('',#246,5.);
#63=CYLINDRICAL_SURFACE('',#251,4.7);
#64=CONICAL_SURFACE('',#240,5.,44.9999999999999);
#65=CONICAL_SURFACE('',#256,2.66453525910038E-15,88.5000000000001);
#66=CONICAL_SURFACE('',#260,4.99999999847693,0.00500000000003584);
#67=FACE_BOUND('',#110,.T.);
#68=FACE_BOUND('',#111,.T.);
#69=FACE_BOUND('',#112,.T.);
#70=FACE_BOUND('',#113,.T.);
#71=FACE_BOUND('',#115,.T.);
#72=FACE_BOUND('',#116,.T.);
#73=FACE_BOUND('',#117,.T.);
#74=FACE_BOUND('',#118,.T.);
#75=FACE_BOUND('',#119,.T.);
#76=FACE_BOUND('',#120,.T.);
#77=FACE_BOUND('',#121,.T.);
#78=FACE_BOUND('',#122,.T.);
#79=FACE_BOUND('',#125,.T.);
#80=FACE_BOUND('',#36,.T.);
#81=FACE_BOUND('',#126,.T.);
#82=FACE_BOUND('',#127,.T.);
#83=FACE_BOUND('',#128,.T.);
#84=FACE_BOUND('',#129,.T.);
#85=ADVANCED_FACE('',(#104),#99,.T.);
#86=ADVANCED_FACE('',(#67,#68),#64,.T.);
#87=ADVANCED_FACE('',(#69,#70),#61,.T.);
#88=ADVANCED_FACE('',(#105),#100,.F.);
#89=ADVANCED_FACE('',(#71,#72),#62,.T.);
#90=ADVANCED_FACE('',(#73,#74),#37,.T.);
#91=ADVANCED_FACE('',(#75,#76),#63,.T.);
#92=ADVANCED_FACE('',(#77,#78),#38,.F.);
#93=ADVANCED_FACE('',(#106),#101,.T.);
#94=ADVANCED_FACE('',(#107),#102,.T.);
#95=ADVANCED_FACE('',(#79,#80),#65,.F.);
#96=ADVANCED_FACE('',(#81,#82),#39,.T.);
#97=ADVANCED_FACE('',(#83,#84),#66,.T.);
#98=ADVANCED_FACE('',(#108),#103,.F.);
#99=PLANE('',#238);
#100=PLANE('',#243);
#101=PLANE('',#253);
#102=PLANE('',#254);
#103=PLANE('',#261);
#104=FACE_OUTER_BOUND('',#109,.T.);
#105=FACE_OUTER_BOUND('',#114,.T.);
#106=FACE_OUTER_BOUND('',#123,.T.);
#107=FACE_OUTER_BOUND('',#124,.T.);
#108=FACE_OUTER_BOUND('',#130,.T.);
#109=EDGE_LOOP('',(#131));
#110=EDGE_LOOP('',(#132));
#111=EDGE_LOOP('',(#133));
#112=EDGE_LOOP('',(#134));
#113=EDGE_LOOP('',(#135));
#114=EDGE_LOOP('',(#136));
#115=EDGE_LOOP('',(#137));
#116=EDGE_LOOP('',(#138));
#117=EDGE_LOOP('',(#139));
#118=EDGE_LOOP('',(#140));
#119=EDGE_LOOP('',(#141));
#120=EDGE_LOOP('',(#142));
#121=EDGE_LOOP('',(#143));
#122=EDGE_LOOP('',(#144));
#123=EDGE_LOOP('',(#145));
#124=EDGE_LOOP('',(#146));
#125=EDGE_LOOP('',(#147));
#126=EDGE_LOOP('',(#148));
#127=EDGE_LOOP('',(#149));
#128=EDGE_LOOP('',(#150));
#129=EDGE_LOOP('',(#151));
#130=EDGE_LOOP('',(#152));
#131=ORIENTED_EDGE('',*,*,#165,.F.);
#132=ORIENTED_EDGE('',*,*,#165,.T.);
#133=ORIENTED_EDGE('',*,*,#166,.F.);
#134=ORIENTED_EDGE('',*,*,#167,.F.);
#135=ORIENTED_EDGE('',*,*,#166,.T.);
#136=ORIENTED_EDGE('',*,*,#167,.T.);
#137=ORIENTED_EDGE('',*,*,#168,.F.);
#138=ORIENTED_EDGE('',*,*,#169,.F.);
#139=ORIENTED_EDGE('',*,*,#170,.T.);
#140=ORIENTED_EDGE('',*,*,#171,.F.);
#141=ORIENTED_EDGE('',*,*,#172,.T.);
#142=ORIENTED_EDGE('',*,*,#170,.F.);
#143=ORIENTED_EDGE('',*,*,#168,.T.);
#144=ORIENTED_EDGE('',*,*,#172,.F.);
#145=ORIENTED_EDGE('',*,*,#169,.T.);
#146=ORIENTED_EDGE('',*,*,#171,.T.);
#147=ORIENTED_EDGE('',*,*,#173,.T.);
#148=ORIENTED_EDGE('',*,*,#174,.T.);
#149=ORIENTED_EDGE('',*,*,#173,.F.);
#150=ORIENTED_EDGE('',*,*,#175,.F.);
#151=ORIENTED_EDGE('',*,*,#174,.F.);
#152=ORIENTED_EDGE('',*,*,#175,.T.);
#153=VERTEX_POINT('',#345);
#154=VERTEX_POINT('',#348);
#155=VERTEX_POINT('',#351);
#156=VERTEX_POINT('',#355);
#157=VERTEX_POINT('',#357);
#158=VERTEX_POINT('',#360);
#159=VERTEX_POINT('',#362);
#160=VERTEX_POINT('',#365);
#161=VERTEX_POINT('',#371);
#162=VERTEX_POINT('',#372);
#163=VERTEX_POINT('',#375);
#164=VERTEX_POINT('',#378);
#165=EDGE_CURVE('',#153,#153,#176,.T.);
#166=EDGE_CURVE('',#154,#154,#177,.T.);
#167=EDGE_CURVE('',#155,#155,#178,.T.);
#168=EDGE_CURVE('',#156,#156,#179,.T.);
#169=EDGE_CURVE('',#157,#157,#180,.T.);
#170=EDGE_CURVE('',#158,#158,#181,.T.);
#171=EDGE_CURVE('',#159,#159,#182,.T.);
#172=EDGE_CURVE('',#160,#160,#183,.T.);
#173=EDGE_CURVE('',#161,#161,#184,.T.);
#174=EDGE_CURVE('',#163,#163,#185,.T.);
#175=EDGE_CURVE('',#164,#164,#186,.T.);
#176=CIRCLE('',#237,4.29999999999999);
#177=CIRCLE('',#239,5.);
#178=CIRCLE('',#241,5.);
#179=CIRCLE('',#244,5.);
#180=CIRCLE('',#245,5.);
#181=CIRCLE('',#247,4.7);
#182=CIRCLE('',#248,4.99828957885179);
#183=CIRCLE('',#250,4.7);
#184=CIRCLE('',#255,4.58952922067685);
#185=CIRCLE('',#257,4.99999999847693);
#186=CIRCLE('',#259,4.99828957885179);
#187=CURVE_STYLE('',#192,POSITIVE_LENGTH_MEASURE(0.18),#191);
#188=CURVE_STYLE('',#193,POSITIVE_LENGTH_MEASURE(0.18),#229);
#189=CURVE_STYLE('',#194,POSITIVE_LENGTH_MEASURE(0.18),#229);
#190=CURVE_STYLE('',#195,POSITIVE_LENGTH_MEASURE(0.18),#229);
#191=DRAUGHTING_PRE_DEFINED_COLOUR('blue');
#192=DRAUGHTING_PRE_DEFINED_CURVE_FONT('continuous');
#193=DRAUGHTING_PRE_DEFINED_CURVE_FONT('continuous');
#194=DRAUGHTING_PRE_DEFINED_CURVE_FONT('continuous');
#195=DRAUGHTING_PRE_DEFINED_CURVE_FONT('continuous');
#196=TRIMMED_CURVE('CUTTING PART LINE',#197,(PARAMETER_VALUE(0.)),(
PARAMETER_VALUE(1.)),.T.,.PARAMETER.);
#197=(
BOUNDED_CURVE()
B_SPLINE_CURVE(3,(#325,#326,#327,#328,#329,#330,#331,#332,#333,#334,#335,
#336,#337,#338,#339,#340),.UNSPECIFIED.,.T.,.F.)
B_SPLINE_CURVE_WITH_KNOTS((4,3,3,3,3,4),(0.,0.394303101925457,0.407154698328654,
0.499516390420611,0.899446704708423,1.),.UNSPECIFIED.)
CURVE()
GEOMETRIC_REPRESENTATION_ITEM()
RATIONAL_B_SPLINE_CURVE((1.,1.,1.,1.,0.798506136406038,0.798506136406038,
1.,1.,1.,1.,1.,1.,1.,1.,1.,1.))
REPRESENTATION_ITEM('CUTTING PART LINE')
);
#198=PRESENTATION_LAYER_ASSIGNMENT('1','Layer 1',(#321,#322,#323,#324,#196,
#234,#235,#236,#55,#56,#57));
#199=STYLED_ITEM('',(#210),#321);
#200=STYLED_ITEM('',(#211),#322);
#201=STYLED_ITEM('',(#212),#323);
#202=STYLED_ITEM('',(#213),#324);
#203=STYLED_ITEM('',(#214),#196);
#204=STYLED_ITEM('',(#215),#234);
#205=STYLED_ITEM('',(#216),#235);
#206=STYLED_ITEM('',(#217),#236);
#207=STYLED_ITEM('',(#218),#55);
#208=STYLED_ITEM('',(#219),#56);
#209=STYLED_ITEM('',(#220),#57);
#210=PRESENTATION_STYLE_ASSIGNMENT((#221));
#211=PRESENTATION_STYLE_ASSIGNMENT((#222));
#212=PRESENTATION_STYLE_ASSIGNMENT((#223));
#213=PRESENTATION_STYLE_ASSIGNMENT((#224));
#214=PRESENTATION_STYLE_ASSIGNMENT((#187));
#215=PRESENTATION_STYLE_ASSIGNMENT((#188));
#216=PRESENTATION_STYLE_ASSIGNMENT((#189));
#217=PRESENTATION_STYLE_ASSIGNMENT((#190));
#218=PRESENTATION_STYLE_ASSIGNMENT((#40));
#219=PRESENTATION_STYLE_ASSIGNMENT((#41));
#220=PRESENTATION_STYLE_ASSIGNMENT((#42));
#221=POINT_STYLE('',#225,POSITIVE_LENGTH_MEASURE(3.),#229);
#222=POINT_STYLE('',#226,POSITIVE_LENGTH_MEASURE(3.),#229);
#223=POINT_STYLE('',#227,POSITIVE_LENGTH_MEASURE(3.),#229);
#224=POINT_STYLE('',#228,POSITIVE_LENGTH_MEASURE(3.),#230);
#225=PRE_DEFINED_POINT_MARKER_SYMBOL('plus');
#226=PRE_DEFINED_POINT_MARKER_SYMBOL('plus');
#227=PRE_DEFINED_POINT_MARKER_SYMBOL('plus');
#228=PRE_DEFINED_POINT_MARKER_SYMBOL('plus');
#229=COLOUR_RGB('Pale Maroon',0.811749446860456,0.603921568627451,0.611749446860456);
#230=COLOUR_RGB('Medium Royal',0.2,0.4,0.8);
#231=COLOUR_RGB('Medium Gray',0.490196078431373,0.490196078431373,0.490196078431373);
#232=COLOUR_RGB('Light Gray',0.8,0.8,0.8);
#233=AXIS2_PLACEMENT_3D('',#320,#262,#263);
#234=AXIS2_PLACEMENT_3D('PCS',#341,#264,#265);
#235=AXIS2_PLACEMENT_3D('MCS',#342,#266,#267);
#236=AXIS2_PLACEMENT_3D('CIP',#343,#268,#269);
#237=AXIS2_PLACEMENT_3D('',#344,#270,#271);
#238=AXIS2_PLACEMENT_3D('',#346,#272,#273);
#239=AXIS2_PLACEMENT_3D('',#347,#274,#275);
#240=AXIS2_PLACEMENT_3D('',#349,#276,#277);
#241=AXIS2_PLACEMENT_3D('',#350,#278,#279);
#242=AXIS2_PLACEMENT_3D('',#352,#280,#281);
#243=AXIS2_PLACEMENT_3D('',#353,#282,#283);
#244=AXIS2_PLACEMENT_3D('',#354,#284,#285);
#245=AXIS2_PLACEMENT_3D('',#356,#286,#287);
#246=AXIS2_PLACEMENT_3D('',#358,#288,#289);
#247=AXIS2_PLACEMENT_3D('',#359,#290,#291);
#248=AXIS2_PLACEMENT_3D('',#361,#292,#293);
#249=AXIS2_PLACEMENT_3D('',#363,#294,#295);
#250=AXIS2_PLACEMENT_3D('',#364,#296,#297);
#251=AXIS2_PLACEMENT_3D('',#366,#298,#299);
#252=AXIS2_PLACEMENT_3D('',#367,#300,#301);
#253=AXIS2_PLACEMENT_3D('',#368,#302,#303);
#254=AXIS2_PLACEMENT_3D('',#369,#304,#305);
#255=AXIS2_PLACEMENT_3D('',#370,#306,#307);
#256=AXIS2_PLACEMENT_3D('',#373,#308,#309);
#257=AXIS2_PLACEMENT_3D('',#374,#310,#311);
#258=AXIS2_PLACEMENT_3D('',#376,#312,#313);
#259=AXIS2_PLACEMENT_3D('',#377,#314,#315);
#260=AXIS2_PLACEMENT_3D('',#379,#316,#317);
#261=AXIS2_PLACEMENT_3D('',#380,#318,#319);
#262=DIRECTION('',(0.,0.,1.));
#263=DIRECTION('',(1.,0.,0.));
#264=DIRECTION('',(0.,0.,1.));
#265=DIRECTION('',(1.,0.,0.));
#266=DIRECTION('',(0.,0.,1.));
#267=DIRECTION('',(1.,0.,0.));
#268=DIRECTION('',(0.,0.,1.));
#269=DIRECTION('',(1.,0.,0.));
#270=DIRECTION('',(0.,0.,-1.));
#271=DIRECTION('',(-1.,0.,0.));
#272=DIRECTION('',(0.,0.,1.));
#273=DIRECTION('',(-1.,0.,0.));
#274=DIRECTION('',(0.,0.,-1.));
#275=DIRECTION('',(-1.,0.,0.));
#276=DIRECTION('',(0.,0.,-1.));
#277=DIRECTION('',(1.,0.,6.90437204368881E-18));
#278=DIRECTION('',(0.,0.,-1.));
#279=DIRECTION('',(1.,0.,0.));
#280=DIRECTION('',(0.,0.,-1.));
#281=DIRECTION('',(1.,0.,0.));
#282=DIRECTION('',(0.,0.,1.));
#283=DIRECTION('',(-1.,0.,0.));
#284=DIRECTION('',(0.,0.,-1.));
#285=DIRECTION('',(-1.,0.,0.));
#286=DIRECTION('',(0.,0.,1.));
#287=DIRECTION('',(1.,0.,0.));
#288=DIRECTION('',(0.,0.,-1.));
#289=DIRECTION('',(1.,0.,0.));
#290=DIRECTION('',(0.,0.,-1.));
#291=DIRECTION('',(-1.,0.,0.));
#292=DIRECTION('',(0.,0.,-1.));
#293=DIRECTION('',(-1.,0.,0.));
#294=DIRECTION('',(0.,0.,-1.));
#295=DIRECTION('',(1.,0.,0.));
#296=DIRECTION('',(0.,0.,-1.));
#297=DIRECTION('',(-1.,0.,0.));
#298=DIRECTION('',(0.,0.,-1.));
#299=DIRECTION('',(1.,0.,0.));
#300=DIRECTION('',(0.,0.,-1.));
#301=DIRECTION('',(1.,0.,0.));
#302=DIRECTION('',(0.,0.,1.));
#303=DIRECTION('',(-1.,0.,0.));
#304=DIRECTION('',(0.,0.,-1.));
#305=DIRECTION('',(1.,0.,0.));
#306=DIRECTION('',(0.,0.,-1.));
#307=DIRECTION('',(-1.,0.,0.));
#308=DIRECTION('',(0.,0.,-1.));
#309=DIRECTION('',(1.,0.,2.36211731007997E-18));
#310=DIRECTION('',(0.,0.,-1.));
#311=DIRECTION('',(-1.,0.,0.));
#312=DIRECTION('',(0.,0.,-1.));
#313=DIRECTION('',(1.,0.,0.));
#314=DIRECTION('',(0.,0.,1.));
#315=DIRECTION('',(-1.,0.,0.));
#316=DIRECTION('',(0.,0.,-1.));
#317=DIRECTION('',(1.,0.,2.04595944306081E-14));
#318=DIRECTION('',(0.,0.,-1.));
#319=DIRECTION('',(1.,0.,0.));
#320=CARTESIAN_POINT('',(0.,0.,0.));
#321=CARTESIAN_POINT('',(0.,0.,40.));
#322=CARTESIAN_POINT('',(0.,0.,0.));
#323=CARTESIAN_POINT('',(0.,0.,-32.));
#324=CARTESIAN_POINT('CRP',(-5.,0.,-32.));
#325=CARTESIAN_POINT('',(-4.9982895788518,0.,-12.0000000000076));
#326=CARTESIAN_POINT('',(-4.99885971872684,0.,-18.5333216978118));
#327=CARTESIAN_POINT('',(-4.99942985860189,0.,-25.066643395616));
#328=CARTESIAN_POINT('',(-4.99999999847693,0.,-31.5999650934176));
#329=CARTESIAN_POINT('',(-5.0000208747243,0.,-31.8391892660571));
#330=CARTESIAN_POINT('',(-4.82867141808036,0.,-32.0061250888153));
#331=CARTESIAN_POINT('',(-4.58952922067685,0.,-31.9998629299902));
#332=CARTESIAN_POINT('',(-3.0596861471179,0.,-31.9598025792529));
#333=CARTESIAN_POINT('',(-1.52984307355895,0.,-31.9197422285155));
#334=CARTESIAN_POINT('',(-1.33226762955019E-15,0.,-31.8796818777781));
#335=CARTESIAN_POINT('',(0.,0.,-25.2531212518521));
#336=CARTESIAN_POINT('',(0.,0.,-18.626560625926));
#337=CARTESIAN_POINT('',(0.,0.,-12.));
#338=CARTESIAN_POINT('',(-1.66609652628393,0.,-12.));
#339=CARTESIAN_POINT('',(-3.33219305256786,0.,-12.));
#340=CARTESIAN_POINT('',(-4.99828957885179,0.,-12.));
#341=CARTESIAN_POINT('',(0.,0.,40.));
#342=CARTESIAN_POINT('',(0.,0.,0.));
#343=CARTESIAN_POINT('',(0.,0.,-32.));
#344=CARTESIAN_POINT('',(0.,0.,40.));
#345=CARTESIAN_POINT('',(-4.29999999999999,0.,40.));
#346=CARTESIAN_POINT('',(4.29999999999999,0.,40.));
#347=CARTESIAN_POINT('',(0.,0.,39.3));
#348=CARTESIAN_POINT('',(-5.,0.,39.3));
#349=CARTESIAN_POINT('',(0.,0.,39.3));
#350=CARTESIAN_POINT('',(0.,0.,0.));
#351=CARTESIAN_POINT('',(5.,0.,0.));
#352=CARTESIAN_POINT('',(0.,0.,0.));
#353=CARTESIAN_POINT('',(0.,0.,0.));
#354=CARTESIAN_POINT('',(0.,0.,-0.294127789076797));
#355=CARTESIAN_POINT('',(-5.,0.,-0.294127789076797));
#356=CARTESIAN_POINT('',(0.,0.,0.));
#357=CARTESIAN_POINT('',(5.,0.,0.));
#358=CARTESIAN_POINT('',(0.,0.,0.));
#359=CARTESIAN_POINT('',(0.,0.,-10.9493740435484));
#360=CARTESIAN_POINT('',(-4.7,0.,-10.9493740435484));
#361=CARTESIAN_POINT('',(0.,0.,-12.));
#362=CARTESIAN_POINT('',(-4.99828957885179,0.,-12.));
#363=CARTESIAN_POINT('',(0.,0.,-12.000174532925));
#364=CARTESIAN_POINT('',(0.,0.,-2.00000000000001));
#365=CARTESIAN_POINT('',(-4.7,0.,-2.00000000000001));
#366=CARTESIAN_POINT('',(0.,0.,0.));
#367=CARTESIAN_POINT('',(0.,0.,-2.00000000000001));
#368=CARTESIAN_POINT('',(0.,0.,0.));
#369=CARTESIAN_POINT('',(0.,0.,-12.));
#370=CARTESIAN_POINT('',(0.,0.,-31.9998629299902));
#371=CARTESIAN_POINT('',(-4.58952922067685,0.,-31.9998629299902));
#372=CARTESIAN_POINT('',(-2.66453525910038E-15,0.,-31.8796818777781));
#373=CARTESIAN_POINT('',(0.,0.,-31.8796818777781));
#374=CARTESIAN_POINT('',(0.,0.,-31.599965093415));
#375=CARTESIAN_POINT('',(-4.99999999847693,0.,-31.599965093415));
#376=CARTESIAN_POINT('',(0.,0.,-31.6));
#377=CARTESIAN_POINT('',(0.,0.,-12.));
#378=CARTESIAN_POINT('',(-4.99828957885179,0.,-12.));
#379=CARTESIAN_POINT('',(0.,0.,-31.599965093415));
#380=CARTESIAN_POINT('',(0.,0.,-12.));
#381=MECHANICAL_DESIGN_GEOMETRIC_PRESENTATION_REPRESENTATION('',(#199,#200,
#201,#202,#203,#204,#205,#206,#207,#208,#209),#382);
#382=(
GEOMETRIC_REPRESENTATION_CONTEXT(3)
GLOBAL_UNCERTAINTY_ASSIGNED_CONTEXT((#383))
GLOBAL_UNIT_ASSIGNED_CONTEXT((#389,#385,#384))
REPRESENTATION_CONTEXT('JHP751100E2R040','TOP_LEVEL_ASSEMBLY_PART')
);
#383=UNCERTAINTY_MEASURE_WITH_UNIT(LENGTH_MEASURE(2.E-5),#389,
'DISTANCE_ACCURACY_VALUE','Maximum Tolerance applied to model');
#384=(
NAMED_UNIT(*)
SI_UNIT($,.STERADIAN.)
SOLID_ANGLE_UNIT()
);
#385=(
CONVERSION_BASED_UNIT('DEGREE',#387)
NAMED_UNIT(#386)
PLANE_ANGLE_UNIT()
);
#386=DIMENSIONAL_EXPONENTS(0.,0.,0.,0.,0.,0.,0.);
#387=PLANE_ANGLE_MEASURE_WITH_UNIT(PLANE_ANGLE_MEASURE(0.0174532925),#388);
#388=(
NAMED_UNIT(*)
PLANE_ANGLE_UNIT()
SI_UNIT($,.RADIAN.)
);
#389=(
LENGTH_UNIT()
NAMED_UNIT(*)
SI_UNIT(.MILLI.,.METRE.)
);
ENDSEC;
END-ISO-10303-21;
