ISO-10303-21;
HEADER;
/* Generated by software containing ST-Developer
 * from STEP Tools, Inc. (www.steptools.com) 
 */
/* OPTION: using custom schema-name function */

FILE_DESCRIPTION(
/* description */ (''),
/* implementation_level */ '2;1');

FILE_NAME(
/* name */ 'JHP751020G2R020.0Z2_Basic.stp',
/* time_stamp */ '2021-09-22T16:46:46+05:00',
/* author */ (''),
/* organization */ (''),
/* preprocessor_version */ 'ST-DEVELOPER v16.7',
/* originating_system */ 'SIEMENS PLM Software NX 12.0',
/* authorisation */ '');

FILE_SCHEMA (('AUTOMOTIVE_DESIGN { 1 0 10303 214 3 1 1 1 }'));
ENDSEC;

DATA;
#10=CONSTRUCTIVE_GEOMETRY_REPRESENTATION_RELATIONSHIP(
'supplemental geometry','',#34,#11);
#11=CONSTRUCTIVE_GEOMETRY_REPRESENTATION('supplemental geometry',(#234,
#235,#236),#406);
#12=GEOMETRICALLY_BOUNDED_WIREFRAME_SHAPE_REPRESENTATION(
'JHP751020G2R020.0Z2_Basic-None',(#35),#406);
#13=PROPERTY_DEFINITION_REPRESENTATION(#17,#15);
#14=PROPERTY_DEFINITION_REPRESENTATION(#18,#16);
#15=REPRESENTATION('',(#19),#406);
#16=REPRESENTATION('',(#20),#406);
#17=PROPERTY_DEFINITION('pmi validation property','',#25);
#18=PROPERTY_DEFINITION('pmi validation property','',#25);
#19=VALUE_REPRESENTATION_ITEM('number of annotations',COUNT_MEASURE(0.));
#20=VALUE_REPRESENTATION_ITEM('number of views',COUNT_MEASURE(0.));
#21=SHAPE_REPRESENTATION_RELATIONSHIP('None',
'relationship between JHP751020G2R020.0Z2_Basic-None and JHP751020G2R0
20.0Z2_Basic-None',#34,#23);
#22=SHAPE_REPRESENTATION_RELATIONSHIP('None',
'relationship between JHP751020G2R020.0Z2_Basic-None and JHP751020G2R0
20.0Z2_Basic-None',#34,#12);
#23=ADVANCED_BREP_SHAPE_REPRESENTATION('JHP751020G2R020.0Z2_Basic-None',
(#55,#56,#57),#406);
#24=SHAPE_DEFINITION_REPRESENTATION(#25,#34);
#25=PRODUCT_DEFINITION_SHAPE('','',#26);
#26=PRODUCT_DEFINITION(' ','',#28,#27);
#27=PRODUCT_DEFINITION_CONTEXT('part definition',#33,'design');
#28=PRODUCT_DEFINITION_FORMATION_WITH_SPECIFIED_SOURCE(' ',' ',#30,
 .NOT_KNOWN.);
#29=PRODUCT_RELATED_PRODUCT_CATEGORY('part','',(#30));
#30=PRODUCT('INPU35F81CC6gw43','INPU35F81CC6gw43',' ',(#31));
#31=PRODUCT_CONTEXT(' ',#33,'mechanical');
#32=APPLICATION_PROTOCOL_DEFINITION('international standard',
'automotive_design',2010,#33);
#33=APPLICATION_CONTEXT(
'core data for automotive mechanical design processes');
#34=SHAPE_REPRESENTATION('JHP751020G2R020.0Z2_Basic-None',(#233),#406);
#35=GEOMETRIC_CURVE_SET('None',(#318,#319,#320,#321,#196));
#36=VERTEX_LOOP('',#162);
#37=TOROIDAL_SURFACE('',#251,5.95,5.);
#38=TOROIDAL_SURFACE('',#257,0.8,0.199999999999996);
#39=(
BOUNDED_SURFACE()
B_SPLINE_SURFACE(3,3,((#360,#361,#362,#363,#364,#365,#366),(#367,#368,#369,
#370,#371,#372,#373),(#374,#375,#376,#377,#378,#379,#380),(#381,#382,#383,
#384,#385,#386,#387)),.UNSPECIFIED.,.F.,.T.,.F.)
B_SPLINE_SURFACE_WITH_KNOTS((4,4),(1,3,3,3,1),(0.,1.),(-0.5,0.,0.5,1.,1.5),
 .UNSPECIFIED.)
GEOMETRIC_REPRESENTATION_ITEM()
RATIONAL_B_SPLINE_SURFACE(((1.,0.333333333333333,0.333333333333333,1.,0.333333333333333,
0.333333333333333,1.),(0.995843963745191,0.331947987915064,0.331947987915064,
0.995843963745191,0.331947987915064,0.331947987915064,0.995843963745191),
(0.995843963745191,0.331947987915064,0.331947987915064,0.995843963745191,
0.331947987915064,0.331947987915064,0.995843963745191),(1.,0.333333333333333,
0.333333333333333,1.,0.333333333333333,0.333333333333333,1.)))
REPRESENTATION_ITEM('')
SURFACE()
);
#40=SURFACE_STYLE_USAGE(.BOTH.,#43);
#41=SURFACE_STYLE_USAGE(.BOTH.,#44);
#42=SURFACE_STYLE_USAGE(.BOTH.,#45);
#43=SURFACE_SIDE_STYLE('',(#46));
#44=SURFACE_SIDE_STYLE('',(#47));
#45=SURFACE_SIDE_STYLE('',(#48));
#46=SURFACE_STYLE_FILL_AREA(#49);
#47=SURFACE_STYLE_FILL_AREA(#50);
#48=SURFACE_STYLE_FILL_AREA(#51);
#49=FILL_AREA_STYLE('',(#52));
#50=FILL_AREA_STYLE('',(#53));
#51=FILL_AREA_STYLE('',(#54));
#52=FILL_AREA_STYLE_COLOUR('',#231);
#53=FILL_AREA_STYLE_COLOUR('',#231);
#54=FILL_AREA_STYLE_COLOUR('',#232);
#55=MANIFOLD_SOLID_BREP('NOCUT',#58);
#56=MANIFOLD_SOLID_BREP('NOCUT',#59);
#57=MANIFOLD_SOLID_BREP('CUT',#60);
#58=CLOSED_SHELL('',(#85,#86,#87,#88));
#59=CLOSED_SHELL('',(#89,#90,#91,#92,#93,#94));
#60=CLOSED_SHELL('',(#95,#96,#97,#98));
#61=CYLINDRICAL_SURFACE('',#242,1.5);
#62=CYLINDRICAL_SURFACE('',#246,1.5);
#63=CYLINDRICAL_SURFACE('',#250,0.949999999999999);
#64=CONICAL_SURFACE('',#240,1.5,44.9999999999995);
#65=CONICAL_SURFACE('',#255,2.96736560094141E-15,87.4999999999999);
#66=CONICAL_SURFACE('',#259,0.999999999238453,0.00499999999991822);
#67=FACE_BOUND('',#110,.T.);
#68=FACE_BOUND('',#111,.T.);
#69=FACE_BOUND('',#112,.T.);
#70=FACE_BOUND('',#113,.T.);
#71=FACE_BOUND('',#115,.T.);
#72=FACE_BOUND('',#116,.T.);
#73=FACE_BOUND('',#117,.T.);
#74=FACE_BOUND('',#118,.T.);
#75=FACE_BOUND('',#119,.T.);
#76=FACE_BOUND('',#120,.T.);
#77=FACE_BOUND('',#121,.T.);
#78=FACE_BOUND('',#122,.T.);
#79=FACE_BOUND('',#125,.T.);
#80=FACE_BOUND('',#36,.T.);
#81=FACE_BOUND('',#126,.T.);
#82=FACE_BOUND('',#127,.T.);
#83=FACE_BOUND('',#128,.T.);
#84=FACE_BOUND('',#129,.T.);
#85=ADVANCED_FACE('',(#104),#99,.T.);
#86=ADVANCED_FACE('',(#67,#68),#64,.T.);
#87=ADVANCED_FACE('',(#69,#70),#61,.T.);
#88=ADVANCED_FACE('',(#105),#100,.F.);
#89=ADVANCED_FACE('',(#71,#72),#62,.T.);
#90=ADVANCED_FACE('',(#73,#74),#39,.T.);
#91=ADVANCED_FACE('',(#75,#76),#63,.T.);
#92=ADVANCED_FACE('',(#77,#78),#37,.F.);
#93=ADVANCED_FACE('',(#106),#101,.T.);
#94=ADVANCED_FACE('',(#107),#102,.T.);
#95=ADVANCED_FACE('',(#79,#80),#65,.F.);
#96=ADVANCED_FACE('',(#81,#82),#38,.T.);
#97=ADVANCED_FACE('',(#83,#84),#66,.T.);
#98=ADVANCED_FACE('',(#108),#103,.F.);
#99=PLANE('',#238);
#100=PLANE('',#243);
#101=PLANE('',#252);
#102=PLANE('',#253);
#103=PLANE('',#260);
#104=FACE_OUTER_BOUND('',#109,.T.);
#105=FACE_OUTER_BOUND('',#114,.T.);
#106=FACE_OUTER_BOUND('',#123,.T.);
#107=FACE_OUTER_BOUND('',#124,.T.);
#108=FACE_OUTER_BOUND('',#130,.T.);
#109=EDGE_LOOP('',(#131));
#110=EDGE_LOOP('',(#132));
#111=EDGE_LOOP('',(#133));
#112=EDGE_LOOP('',(#134));
#113=EDGE_LOOP('',(#135));
#114=EDGE_LOOP('',(#136));
#115=EDGE_LOOP('',(#137));
#116=EDGE_LOOP('',(#138));
#117=EDGE_LOOP('',(#139));
#118=EDGE_LOOP('',(#140));
#119=EDGE_LOOP('',(#141));
#120=EDGE_LOOP('',(#142));
#121=EDGE_LOOP('',(#143));
#122=EDGE_LOOP('',(#144));
#123=EDGE_LOOP('',(#145));
#124=EDGE_LOOP('',(#146));
#125=EDGE_LOOP('',(#147));
#126=EDGE_LOOP('',(#148));
#127=EDGE_LOOP('',(#149));
#128=EDGE_LOOP('',(#150));
#129=EDGE_LOOP('',(#151));
#130=EDGE_LOOP('',(#152));
#131=ORIENTED_EDGE('',*,*,#165,.F.);
#132=ORIENTED_EDGE('',*,*,#165,.T.);
#133=ORIENTED_EDGE('',*,*,#166,.F.);
#134=ORIENTED_EDGE('',*,*,#167,.F.);
#135=ORIENTED_EDGE('',*,*,#166,.T.);
#136=ORIENTED_EDGE('',*,*,#167,.T.);
#137=ORIENTED_EDGE('',*,*,#168,.F.);
#138=ORIENTED_EDGE('',*,*,#169,.F.);
#139=ORIENTED_EDGE('',*,*,#170,.T.);
#140=ORIENTED_EDGE('',*,*,#171,.F.);
#141=ORIENTED_EDGE('',*,*,#172,.T.);
#142=ORIENTED_EDGE('',*,*,#170,.F.);
#143=ORIENTED_EDGE('',*,*,#168,.T.);
#144=ORIENTED_EDGE('',*,*,#172,.F.);
#145=ORIENTED_EDGE('',*,*,#169,.T.);
#146=ORIENTED_EDGE('',*,*,#171,.T.);
#147=ORIENTED_EDGE('',*,*,#173,.T.);
#148=ORIENTED_EDGE('',*,*,#174,.T.);
#149=ORIENTED_EDGE('',*,*,#173,.F.);
#150=ORIENTED_EDGE('',*,*,#175,.F.);
#151=ORIENTED_EDGE('',*,*,#174,.F.);
#152=ORIENTED_EDGE('',*,*,#175,.T.);
#153=VERTEX_POINT('',#342);
#154=VERTEX_POINT('',#345);
#155=VERTEX_POINT('',#348);
#156=VERTEX_POINT('',#352);
#157=VERTEX_POINT('',#354);
#158=VERTEX_POINT('',#357);
#159=VERTEX_POINT('',#359);
#160=VERTEX_POINT('',#389);
#161=VERTEX_POINT('',#395);
#162=VERTEX_POINT('',#396);
#163=VERTEX_POINT('',#399);
#164=VERTEX_POINT('',#402);
#165=EDGE_CURVE('',#153,#153,#176,.T.);
#166=EDGE_CURVE('',#154,#154,#177,.T.);
#167=EDGE_CURVE('',#155,#155,#178,.T.);
#168=EDGE_CURVE('',#156,#156,#179,.T.);
#169=EDGE_CURVE('',#157,#157,#180,.T.);
#170=EDGE_CURVE('',#158,#158,#181,.T.);
#171=EDGE_CURVE('',#159,#159,#182,.T.);
#172=EDGE_CURVE('',#160,#160,#183,.T.);
#173=EDGE_CURVE('',#161,#161,#184,.T.);
#174=EDGE_CURVE('',#163,#163,#185,.T.);
#175=EDGE_CURVE('',#164,#164,#186,.T.);
#176=CIRCLE('',#237,1.2);
#177=CIRCLE('',#239,1.5);
#178=CIRCLE('',#241,1.5);
#179=CIRCLE('',#244,1.5);
#180=CIRCLE('',#245,1.5);
#181=CIRCLE('',#247,0.949999999999999);
#182=CIRCLE('',#248,0.999755654665645);
#183=CIRCLE('',#249,0.949999999999998);
#184=CIRCLE('',#254,0.791276122526934);
#185=CIRCLE('',#256,0.999999999238453);
#186=CIRCLE('',#258,0.999755654665645);
#187=CURVE_STYLE('',#192,POSITIVE_LENGTH_MEASURE(0.18),#191);
#188=CURVE_STYLE('',#193,POSITIVE_LENGTH_MEASURE(0.18),#229);
#189=CURVE_STYLE('',#194,POSITIVE_LENGTH_MEASURE(0.18),#229);
#190=CURVE_STYLE('',#195,POSITIVE_LENGTH_MEASURE(0.18),#229);
#191=DRAUGHTING_PRE_DEFINED_COLOUR('blue');
#192=DRAUGHTING_PRE_DEFINED_CURVE_FONT('continuous');
#193=DRAUGHTING_PRE_DEFINED_CURVE_FONT('continuous');
#194=DRAUGHTING_PRE_DEFINED_CURVE_FONT('continuous');
#195=DRAUGHTING_PRE_DEFINED_CURVE_FONT('continuous');
#196=TRIMMED_CURVE('CUTTING PART LINE',#197,(PARAMETER_VALUE(0.)),(
PARAMETER_VALUE(1.)),.T.,.PARAMETER.);
#197=(
BOUNDED_CURVE()
B_SPLINE_CURVE(3,(#322,#323,#324,#325,#326,#327,#328,#329,#330,#331,#332,
#333,#334,#335,#336,#337),.UNSPECIFIED.,.T.,.F.)
B_SPLINE_CURVE_WITH_KNOTS((4,3,3,3,3,4),(0.,0.355330742526554,0.396308673662268,
0.496820940382884,0.873126381388355,1.),.UNSPECIFIED.)
CURVE()
GEOMETRIC_REPRESENTATION_ITEM()
RATIONAL_B_SPLINE_CURVE((1.,1.,1.,1.,0.794321024033444,0.794321024033443,
1.,1.,1.,1.,1.,1.,1.,1.,1.,1.))
REPRESENTATION_ITEM('CUTTING PART LINE')
);
#198=PRESENTATION_LAYER_ASSIGNMENT('1','Layer 1',(#318,#319,#320,#321,#196,
#234,#235,#236,#55,#56,#57));
#199=STYLED_ITEM('',(#210),#318);
#200=STYLED_ITEM('',(#211),#319);
#201=STYLED_ITEM('',(#212),#320);
#202=STYLED_ITEM('',(#213),#321);
#203=STYLED_ITEM('',(#214),#196);
#204=STYLED_ITEM('',(#215),#234);
#205=STYLED_ITEM('',(#216),#235);
#206=STYLED_ITEM('',(#217),#236);
#207=STYLED_ITEM('',(#218),#55);
#208=STYLED_ITEM('',(#219),#56);
#209=STYLED_ITEM('',(#220),#57);
#210=PRESENTATION_STYLE_ASSIGNMENT((#221));
#211=PRESENTATION_STYLE_ASSIGNMENT((#222));
#212=PRESENTATION_STYLE_ASSIGNMENT((#223));
#213=PRESENTATION_STYLE_ASSIGNMENT((#224));
#214=PRESENTATION_STYLE_ASSIGNMENT((#187));
#215=PRESENTATION_STYLE_ASSIGNMENT((#188));
#216=PRESENTATION_STYLE_ASSIGNMENT((#189));
#217=PRESENTATION_STYLE_ASSIGNMENT((#190));
#218=PRESENTATION_STYLE_ASSIGNMENT((#40));
#219=PRESENTATION_STYLE_ASSIGNMENT((#41));
#220=PRESENTATION_STYLE_ASSIGNMENT((#42));
#221=POINT_STYLE('',#225,POSITIVE_LENGTH_MEASURE(3.),#229);
#222=POINT_STYLE('',#226,POSITIVE_LENGTH_MEASURE(3.),#229);
#223=POINT_STYLE('',#227,POSITIVE_LENGTH_MEASURE(3.),#229);
#224=POINT_STYLE('',#228,POSITIVE_LENGTH_MEASURE(3.),#230);
#225=PRE_DEFINED_POINT_MARKER_SYMBOL('plus');
#226=PRE_DEFINED_POINT_MARKER_SYMBOL('plus');
#227=PRE_DEFINED_POINT_MARKER_SYMBOL('plus');
#228=PRE_DEFINED_POINT_MARKER_SYMBOL('plus');
#229=COLOUR_RGB('Pale Maroon',0.811749446860456,0.603921568627451,0.611749446860456);
#230=COLOUR_RGB('Medium Royal',0.2,0.4,0.8);
#231=COLOUR_RGB('Medium Gray',0.490196078431373,0.490196078431373,0.490196078431373);
#232=COLOUR_RGB('Light Gray',0.8,0.8,0.8);
#233=AXIS2_PLACEMENT_3D('',#317,#261,#262);
#234=AXIS2_PLACEMENT_3D('PCS',#338,#263,#264);
#235=AXIS2_PLACEMENT_3D('MCS',#339,#265,#266);
#236=AXIS2_PLACEMENT_3D('CIP',#340,#267,#268);
#237=AXIS2_PLACEMENT_3D('',#341,#269,#270);
#238=AXIS2_PLACEMENT_3D('',#343,#271,#272);
#239=AXIS2_PLACEMENT_3D('',#344,#273,#274);
#240=AXIS2_PLACEMENT_3D('',#346,#275,#276);
#241=AXIS2_PLACEMENT_3D('',#347,#277,#278);
#242=AXIS2_PLACEMENT_3D('',#349,#279,#280);
#243=AXIS2_PLACEMENT_3D('',#350,#281,#282);
#244=AXIS2_PLACEMENT_3D('',#351,#283,#284);
#245=AXIS2_PLACEMENT_3D('',#353,#285,#286);
#246=AXIS2_PLACEMENT_3D('',#355,#287,#288);
#247=AXIS2_PLACEMENT_3D('',#356,#289,#290);
#248=AXIS2_PLACEMENT_3D('',#358,#291,#292);
#249=AXIS2_PLACEMENT_3D('',#388,#293,#294);
#250=AXIS2_PLACEMENT_3D('',#390,#295,#296);
#251=AXIS2_PLACEMENT_3D('',#391,#297,#298);
#252=AXIS2_PLACEMENT_3D('',#392,#299,#300);
#253=AXIS2_PLACEMENT_3D('',#393,#301,#302);
#254=AXIS2_PLACEMENT_3D('',#394,#303,#304);
#255=AXIS2_PLACEMENT_3D('',#397,#305,#306);
#256=AXIS2_PLACEMENT_3D('',#398,#307,#308);
#257=AXIS2_PLACEMENT_3D('',#400,#309,#310);
#258=AXIS2_PLACEMENT_3D('',#401,#311,#312);
#259=AXIS2_PLACEMENT_3D('',#403,#313,#314);
#260=AXIS2_PLACEMENT_3D('',#404,#315,#316);
#261=DIRECTION('',(0.,0.,1.));
#262=DIRECTION('',(1.,0.,0.));
#263=DIRECTION('',(0.,0.,1.));
#264=DIRECTION('',(1.,0.,0.));
#265=DIRECTION('',(0.,0.,1.));
#266=DIRECTION('',(1.,0.,0.));
#267=DIRECTION('',(0.,0.,1.));
#268=DIRECTION('',(1.,0.,0.));
#269=DIRECTION('',(0.,0.,-1.));
#270=DIRECTION('',(-1.,0.,0.));
#271=DIRECTION('',(0.,0.,1.));
#272=DIRECTION('',(-1.,0.,0.));
#273=DIRECTION('',(0.,0.,-1.));
#274=DIRECTION('',(-1.,0.,0.));
#275=DIRECTION('',(0.,0.,-1.));
#276=DIRECTION('',(1.,0.,-5.19637586413431E-17));
#277=DIRECTION('',(0.,0.,-1.));
#278=DIRECTION('',(1.,0.,0.));
#279=DIRECTION('',(0.,0.,-1.));
#280=DIRECTION('',(1.,0.,0.));
#281=DIRECTION('',(0.,0.,1.));
#282=DIRECTION('',(-1.,0.,0.));
#283=DIRECTION('',(0.,0.,-1.));
#284=DIRECTION('',(-1.,0.,0.));
#285=DIRECTION('',(0.,0.,1.));
#286=DIRECTION('',(1.,0.,0.));
#287=DIRECTION('',(0.,0.,-1.));
#288=DIRECTION('',(1.,0.,0.));
#289=DIRECTION('',(0.,0.,-1.));
#290=DIRECTION('',(-1.,0.,0.));
#291=DIRECTION('',(0.,0.,-1.));
#292=DIRECTION('',(-1.,0.,0.));
#293=DIRECTION('',(0.,0.,-1.));
#294=DIRECTION('',(-1.,0.,0.));
#295=DIRECTION('',(0.,0.,-1.));
#296=DIRECTION('',(1.,0.,0.));
#297=DIRECTION('',(0.,0.,-1.));
#298=DIRECTION('',(1.,0.,0.));
#299=DIRECTION('',(0.,0.,1.));
#300=DIRECTION('',(-1.,0.,0.));
#301=DIRECTION('',(0.,0.,-1.));
#302=DIRECTION('',(1.,0.,0.));
#303=DIRECTION('',(0.,0.,-1.));
#304=DIRECTION('',(-1.,0.,0.));
#305=DIRECTION('',(0.,0.,-1.));
#306=DIRECTION('',(1.,0.,-4.69585908409429E-18));
#307=DIRECTION('',(0.,0.,-1.));
#308=DIRECTION('',(-1.,0.,0.));
#309=DIRECTION('',(0.,0.,-1.));
#310=DIRECTION('',(1.,0.,0.));
#311=DIRECTION('',(0.,0.,1.));
#312=DIRECTION('',(-1.,0.,0.));
#313=DIRECTION('',(0.,0.,-1.));
#314=DIRECTION('',(1.,0.,5.42466821532942E-14));
#315=DIRECTION('',(0.,0.,-1.));
#316=DIRECTION('',(1.,0.,0.));
#317=CARTESIAN_POINT('',(0.,0.,0.));
#318=CARTESIAN_POINT('',(0.,0.,28.));
#319=CARTESIAN_POINT('',(0.,0.,0.));
#320=CARTESIAN_POINT('',(0.,0.,-10.));
#321=CARTESIAN_POINT('CRP',(-1.,0.,-10.));
#322=CARTESIAN_POINT('',(-0.999755654665644,0.,-7.00000000000145));
#323=CARTESIAN_POINT('',(-0.999837102856581,0.,-7.93332751557093));
#324=CARTESIAN_POINT('',(-0.999918551047517,0.,-8.86665503114041));
#325=CARTESIAN_POINT('',(-0.999999999238453,0.,-9.79998254670869));
#326=CARTESIAN_POINT('',(-1.00001058115327,0.,-9.92124235807903));
#327=CARTESIAN_POINT('',(-0.912420521888298,0.,-10.0050989230206));
#328=CARTESIAN_POINT('',(-0.791276122526934,0.,-9.99980964431637));
#329=CARTESIAN_POINT('',(-0.527517415017956,0.,-9.9882936904462));
#330=CARTESIAN_POINT('',(-0.26375870750898,0.,-9.97677773657602));
#331=CARTESIAN_POINT('',(-1.49880108324396E-15,0.,-9.96526178270585));
#332=CARTESIAN_POINT('',(0.,0.,-8.97684118847057));
#333=CARTESIAN_POINT('',(0.,0.,-7.98842059423528));
#334=CARTESIAN_POINT('',(0.,0.,-7.));
#335=CARTESIAN_POINT('',(-0.333251884888548,0.,-7.));
#336=CARTESIAN_POINT('',(-0.666503769777097,0.,-7.));
#337=CARTESIAN_POINT('',(-0.999755654665645,0.,-7.));
#338=CARTESIAN_POINT('',(0.,0.,28.));
#339=CARTESIAN_POINT('',(0.,0.,0.));
#340=CARTESIAN_POINT('',(0.,0.,-10.));
#341=CARTESIAN_POINT('',(0.,0.,28.));
#342=CARTESIAN_POINT('',(-1.2,0.,28.));
#343=CARTESIAN_POINT('',(1.2,0.,28.));
#344=CARTESIAN_POINT('',(0.,0.,27.7));
#345=CARTESIAN_POINT('',(-1.5,0.,27.7));
#346=CARTESIAN_POINT('',(0.,0.,27.7));
#347=CARTESIAN_POINT('',(0.,0.,0.));
#348=CARTESIAN_POINT('',(1.5,0.,0.));
#349=CARTESIAN_POINT('',(0.,0.,0.));
#350=CARTESIAN_POINT('',(0.,0.,0.));
#351=CARTESIAN_POINT('',(0.,0.,-1.72019737696439));
#352=CARTESIAN_POINT('',(-1.5,0.,-1.72019737696439));
#353=CARTESIAN_POINT('',(0.,0.,0.));
#354=CARTESIAN_POINT('',(1.5,0.,0.));
#355=CARTESIAN_POINT('',(0.,0.,0.));
#356=CARTESIAN_POINT('',(0.,0.,-6.55683829123556));
#357=CARTESIAN_POINT('',(-0.949999999999999,0.,-6.55683829123556));
#358=CARTESIAN_POINT('',(0.,0.,-7.));
#359=CARTESIAN_POINT('',(-0.999755654665645,0.,-7.));
#360=CARTESIAN_POINT('',(-0.999755654665645,0.,-7.));
#361=CARTESIAN_POINT('',(-0.999755654665645,1.99951130933129,-7.));
#362=CARTESIAN_POINT('',(0.999755654665645,1.99951130933129,-7.));
#363=CARTESIAN_POINT('',(0.999755654665645,0.,-7.));
#364=CARTESIAN_POINT('',(0.999755654665645,-1.99951130933129,-7.));
#365=CARTESIAN_POINT('',(-0.999755654665645,-1.99951130933129,-7.));
#366=CARTESIAN_POINT('',(-0.999755654665645,0.,-7.));
#367=CARTESIAN_POINT('',(-0.999742628482112,0.,-6.85073093246824));
#368=CARTESIAN_POINT('',(-0.999742628482112,1.99948525696422,-6.85073093246824));
#369=CARTESIAN_POINT('',(0.999742628482112,1.99948525696422,-6.85073093246824));
#370=CARTESIAN_POINT('',(0.999742628482112,0.,-6.85073093246824));
#371=CARTESIAN_POINT('',(0.999742628482112,-1.99948525696422,-6.85073093246824));
#372=CARTESIAN_POINT('',(-0.999742628482112,-1.99948525696422,-6.85073093246824));
#373=CARTESIAN_POINT('',(-0.999742628482112,0.,-6.85073093246824));
#374=CARTESIAN_POINT('',(-0.983088193825996,0.,-6.70239386866499));
#375=CARTESIAN_POINT('',(-0.983088193825996,1.96617638765199,-6.70239386866499));
#376=CARTESIAN_POINT('',(0.983088193825996,1.96617638765199,-6.70239386866499));
#377=CARTESIAN_POINT('',(0.983088193825996,0.,-6.70239386866499));
#378=CARTESIAN_POINT('',(0.983088193825996,-1.96617638765199,-6.70239386866499));
#379=CARTESIAN_POINT('',(-0.983088193825996,-1.96617638765199,-6.70239386866499));
#380=CARTESIAN_POINT('',(-0.983088193825996,0.,-6.70239386866499));
#381=CARTESIAN_POINT('',(-0.95,0.,-6.55683829123556));
#382=CARTESIAN_POINT('',(-0.95,1.9,-6.55683829123556));
#383=CARTESIAN_POINT('',(0.95,1.9,-6.55683829123556));
#384=CARTESIAN_POINT('',(0.95,0.,-6.55683829123556));
#385=CARTESIAN_POINT('',(0.95,-1.9,-6.55683829123556));
#386=CARTESIAN_POINT('',(-0.95,-1.9,-6.55683829123556));
#387=CARTESIAN_POINT('',(-0.95,0.,-6.55683829123556));
#388=CARTESIAN_POINT('',(0.,0.,-4.));
#389=CARTESIAN_POINT('',(-0.949999999999998,0.,-4.));
#390=CARTESIAN_POINT('',(0.,0.,0.));
#391=CARTESIAN_POINT('',(0.,0.,-4.));
#392=CARTESIAN_POINT('',(0.,0.,0.));
#393=CARTESIAN_POINT('',(0.,0.,-7.));
#394=CARTESIAN_POINT('',(0.,0.,-9.99980964431636));
#395=CARTESIAN_POINT('',(-0.791276122526934,0.,-9.99980964431636));
#396=CARTESIAN_POINT('',(-2.96736560094141E-15,0.,-9.96526178270585));
#397=CARTESIAN_POINT('',(0.,0.,-9.96526178270585));
#398=CARTESIAN_POINT('',(0.,0.,-9.7999825467075));
#399=CARTESIAN_POINT('',(-0.999999999238453,0.,-9.7999825467075));
#400=CARTESIAN_POINT('',(0.,0.,-9.8));
#401=CARTESIAN_POINT('',(0.,0.,-7.));
#402=CARTESIAN_POINT('',(-0.999755654665645,0.,-7.));
#403=CARTESIAN_POINT('',(0.,0.,-9.7999825467075));
#404=CARTESIAN_POINT('',(0.,0.,-7.));
#405=MECHANICAL_DESIGN_GEOMETRIC_PRESENTATION_REPRESENTATION('',(#199,#200,
#201,#202,#203,#204,#205,#206,#207,#208,#209),#406);
#406=(
GEOMETRIC_REPRESENTATION_CONTEXT(3)
GLOBAL_UNCERTAINTY_ASSIGNED_CONTEXT((#407))
GLOBAL_UNIT_ASSIGNED_CONTEXT((#413,#409,#408))
REPRESENTATION_CONTEXT('JHP751020G2R020','TOP_LEVEL_ASSEMBLY_PART')
);
#407=UNCERTAINTY_MEASURE_WITH_UNIT(LENGTH_MEASURE(0.0254),#413,
'DISTANCE_ACCURACY_VALUE','Maximum Tolerance applied to model');
#408=(
NAMED_UNIT(*)
SI_UNIT($,.STERADIAN.)
SOLID_ANGLE_UNIT()
);
#409=(
CONVERSION_BASED_UNIT('DEGREE',#411)
NAMED_UNIT(#410)
PLANE_ANGLE_UNIT()
);
#410=DIMENSIONAL_EXPONENTS(0.,0.,0.,0.,0.,0.,0.);
#411=PLANE_ANGLE_MEASURE_WITH_UNIT(PLANE_ANGLE_MEASURE(0.0174532925),#412);
#412=(
NAMED_UNIT(*)
PLANE_ANGLE_UNIT()
SI_UNIT($,.RADIAN.)
);
#413=(
LENGTH_UNIT()
NAMED_UNIT(*)
SI_UNIT(.MILLI.,.METRE.)
);
ENDSEC;
END-ISO-10303-21;
