ISO-10303-21;
HEADER;
/* Generated by software containing ST-Developer
 * from STEP Tools, Inc. (www.steptools.com) 
 */
/* OPTION: using custom schema-name function */

FILE_DESCRIPTION(
/* description */ (''),
/* implementation_level */ '2;1');

FILE_NAME(
/* name */ 'AN345R.750E3R020.0Z3_ANF.stp',
/* time_stamp */ '2020-08-27T10:23:50+06:00',
/* author */ (''),
/* organization */ (''),
/* preprocessor_version */ 'ST-DEVELOPER v16.7',
/* originating_system */ 'SIEMENS PLM Software NX 12.0',
/* authorisation */ '');

FILE_SCHEMA (('AUTOMOTIVE_DESIGN { 1 0 10303 214 3 1 1 1 }'));
ENDSEC;

DATA;
#10=CONSTRUCTIVE_GEOMETRY_REPRESENTATION_RELATIONSHIP(
'supplemental geometry','',#32,#11);
#11=CONSTRUCTIVE_GEOMETRY_REPRESENTATION('supplemental geometry',(#209,
#210,#211),#337);
#12=PROPERTY_DEFINITION_REPRESENTATION(#16,#14);
#13=PROPERTY_DEFINITION_REPRESENTATION(#17,#15);
#14=REPRESENTATION('',(#18),#337);
#15=REPRESENTATION('',(#19),#337);
#16=PROPERTY_DEFINITION('pmi validation property','',#23);
#17=PROPERTY_DEFINITION('pmi validation property','',#23);
#18=VALUE_REPRESENTATION_ITEM('number of annotations',COUNT_MEASURE(0.));
#19=VALUE_REPRESENTATION_ITEM('number of views',COUNT_MEASURE(0.));
#20=SHAPE_REPRESENTATION_RELATIONSHIP('None',
'relationship between INPU5BA41C40pisc-None and INPU5BA41C40pisc-None',
#32,#21);
#21=ADVANCED_BREP_SHAPE_REPRESENTATION('INPU5BA41C40pisc-None',(#51,#52,
#53),#337);
#22=SHAPE_DEFINITION_REPRESENTATION(#23,#32);
#23=PRODUCT_DEFINITION_SHAPE('','',#24);
#24=PRODUCT_DEFINITION(' ','',#26,#25);
#25=PRODUCT_DEFINITION_CONTEXT('part definition',#31,'design');
#26=PRODUCT_DEFINITION_FORMATION_WITH_SPECIFIED_SOURCE(' ',' ',#28,
 .NOT_KNOWN.);
#27=PRODUCT_RELATED_PRODUCT_CATEGORY('part','',(#28));
#28=PRODUCT('INPU5BA41C40pisc','INPU5BA41C40pisc',' ',(#29));
#29=PRODUCT_CONTEXT(' ',#31,'mechanical');
#30=APPLICATION_PROTOCOL_DEFINITION('international standard',
'automotive_design',2010,#31);
#31=APPLICATION_CONTEXT(
'core data for automotive mechanical design processes');
#32=SHAPE_REPRESENTATION('INPU5BA41C40pisc-None',(#208),#337);
#33=VERTEX_LOOP('',#159);
#34=TOROIDAL_SURFACE('',#227,18.8214,9.6774);
#35=TOROIDAL_SURFACE('',#233,9.01700000000001,0.508000000000015);
#36=SURFACE_STYLE_USAGE(.BOTH.,#39);
#37=SURFACE_STYLE_USAGE(.BOTH.,#40);
#38=SURFACE_STYLE_USAGE(.BOTH.,#41);
#39=SURFACE_SIDE_STYLE('',(#42));
#40=SURFACE_SIDE_STYLE('',(#43));
#41=SURFACE_SIDE_STYLE('',(#44));
#42=SURFACE_STYLE_FILL_AREA(#45);
#43=SURFACE_STYLE_FILL_AREA(#46);
#44=SURFACE_STYLE_FILL_AREA(#47);
#45=FILL_AREA_STYLE('',(#48));
#46=FILL_AREA_STYLE('',(#49));
#47=FILL_AREA_STYLE('',(#50));
#48=FILL_AREA_STYLE_COLOUR('',#203);
#49=FILL_AREA_STYLE_COLOUR('',#203);
#50=FILL_AREA_STYLE_COLOUR('',#204);
#51=MANIFOLD_SOLID_BREP('NOCUT',#54);
#52=MANIFOLD_SOLID_BREP('NOCUT',#55);
#53=MANIFOLD_SOLID_BREP('CUT',#56);
#54=CLOSED_SHELL('',(#82,#83,#84,#85));
#55=CLOSED_SHELL('',(#86,#87,#88,#89,#90,#91));
#56=CLOSED_SHELL('',(#92,#93,#94,#95));
#57=CYLINDRICAL_SURFACE('',#217,9.525);
#58=CYLINDRICAL_SURFACE('',#221,9.525);
#59=CYLINDRICAL_SURFACE('',#226,9.144);
#60=CONICAL_SURFACE('',#215,9.525,45.0000000000002);
#61=CONICAL_SURFACE('',#224,9.52282776514178,10.0000000000001);
#62=CONICAL_SURFACE('',#231,7.99360577730113E-15,84.9999999999998);
#63=CONICAL_SURFACE('',#235,9.5249999980657,0.00500000000003758);
#64=FACE_BOUND('',#107,.T.);
#65=FACE_BOUND('',#108,.T.);
#66=FACE_BOUND('',#109,.T.);
#67=FACE_BOUND('',#110,.T.);
#68=FACE_BOUND('',#112,.T.);
#69=FACE_BOUND('',#113,.T.);
#70=FACE_BOUND('',#114,.T.);
#71=FACE_BOUND('',#115,.T.);
#72=FACE_BOUND('',#116,.T.);
#73=FACE_BOUND('',#117,.T.);
#74=FACE_BOUND('',#118,.T.);
#75=FACE_BOUND('',#119,.T.);
#76=FACE_BOUND('',#122,.T.);
#77=FACE_BOUND('',#33,.T.);
#78=FACE_BOUND('',#123,.T.);
#79=FACE_BOUND('',#124,.T.);
#80=FACE_BOUND('',#125,.T.);
#81=FACE_BOUND('',#126,.T.);
#82=ADVANCED_FACE('',(#101),#96,.T.);
#83=ADVANCED_FACE('',(#64,#65),#60,.T.);
#84=ADVANCED_FACE('',(#66,#67),#57,.T.);
#85=ADVANCED_FACE('',(#102),#97,.F.);
#86=ADVANCED_FACE('',(#68,#69),#58,.T.);
#87=ADVANCED_FACE('',(#70,#71),#61,.T.);
#88=ADVANCED_FACE('',(#72,#73),#59,.T.);
#89=ADVANCED_FACE('',(#74,#75),#34,.F.);
#90=ADVANCED_FACE('',(#103),#98,.T.);
#91=ADVANCED_FACE('',(#104),#99,.T.);
#92=ADVANCED_FACE('',(#76,#77),#62,.F.);
#93=ADVANCED_FACE('',(#78,#79),#35,.T.);
#94=ADVANCED_FACE('',(#80,#81),#63,.T.);
#95=ADVANCED_FACE('',(#105),#100,.F.);
#96=PLANE('',#213);
#97=PLANE('',#218);
#98=PLANE('',#228);
#99=PLANE('',#229);
#100=PLANE('',#236);
#101=FACE_OUTER_BOUND('',#106,.T.);
#102=FACE_OUTER_BOUND('',#111,.T.);
#103=FACE_OUTER_BOUND('',#120,.T.);
#104=FACE_OUTER_BOUND('',#121,.T.);
#105=FACE_OUTER_BOUND('',#127,.T.);
#106=EDGE_LOOP('',(#128));
#107=EDGE_LOOP('',(#129));
#108=EDGE_LOOP('',(#130));
#109=EDGE_LOOP('',(#131));
#110=EDGE_LOOP('',(#132));
#111=EDGE_LOOP('',(#133));
#112=EDGE_LOOP('',(#134));
#113=EDGE_LOOP('',(#135));
#114=EDGE_LOOP('',(#136));
#115=EDGE_LOOP('',(#137));
#116=EDGE_LOOP('',(#138));
#117=EDGE_LOOP('',(#139));
#118=EDGE_LOOP('',(#140));
#119=EDGE_LOOP('',(#141));
#120=EDGE_LOOP('',(#142));
#121=EDGE_LOOP('',(#143));
#122=EDGE_LOOP('',(#144));
#123=EDGE_LOOP('',(#145));
#124=EDGE_LOOP('',(#146));
#125=EDGE_LOOP('',(#147));
#126=EDGE_LOOP('',(#148));
#127=EDGE_LOOP('',(#149));
#128=ORIENTED_EDGE('',*,*,#162,.F.);
#129=ORIENTED_EDGE('',*,*,#162,.T.);
#130=ORIENTED_EDGE('',*,*,#163,.F.);
#131=ORIENTED_EDGE('',*,*,#164,.T.);
#132=ORIENTED_EDGE('',*,*,#163,.T.);
#133=ORIENTED_EDGE('',*,*,#164,.F.);
#134=ORIENTED_EDGE('',*,*,#165,.F.);
#135=ORIENTED_EDGE('',*,*,#166,.T.);
#136=ORIENTED_EDGE('',*,*,#167,.T.);
#137=ORIENTED_EDGE('',*,*,#168,.F.);
#138=ORIENTED_EDGE('',*,*,#169,.T.);
#139=ORIENTED_EDGE('',*,*,#167,.F.);
#140=ORIENTED_EDGE('',*,*,#165,.T.);
#141=ORIENTED_EDGE('',*,*,#169,.F.);
#142=ORIENTED_EDGE('',*,*,#166,.F.);
#143=ORIENTED_EDGE('',*,*,#168,.T.);
#144=ORIENTED_EDGE('',*,*,#170,.T.);
#145=ORIENTED_EDGE('',*,*,#171,.T.);
#146=ORIENTED_EDGE('',*,*,#170,.F.);
#147=ORIENTED_EDGE('',*,*,#172,.F.);
#148=ORIENTED_EDGE('',*,*,#171,.F.);
#149=ORIENTED_EDGE('',*,*,#172,.T.);
#150=VERTEX_POINT('',#300);
#151=VERTEX_POINT('',#303);
#152=VERTEX_POINT('',#306);
#153=VERTEX_POINT('',#310);
#154=VERTEX_POINT('',#312);
#155=VERTEX_POINT('',#315);
#156=VERTEX_POINT('',#317);
#157=VERTEX_POINT('',#320);
#158=VERTEX_POINT('',#326);
#159=VERTEX_POINT('',#327);
#160=VERTEX_POINT('',#330);
#161=VERTEX_POINT('',#333);
#162=EDGE_CURVE('',#150,#150,#173,.T.);
#163=EDGE_CURVE('',#151,#151,#174,.T.);
#164=EDGE_CURVE('',#152,#152,#175,.T.);
#165=EDGE_CURVE('',#153,#153,#176,.T.);
#166=EDGE_CURVE('',#154,#154,#177,.T.);
#167=EDGE_CURVE('',#155,#155,#178,.T.);
#168=EDGE_CURVE('',#156,#156,#179,.T.);
#169=EDGE_CURVE('',#157,#157,#180,.T.);
#170=EDGE_CURVE('',#158,#158,#181,.T.);
#171=EDGE_CURVE('',#160,#160,#182,.T.);
#172=EDGE_CURVE('',#161,#161,#183,.T.);
#173=CIRCLE('',#212,8.9154);
#174=CIRCLE('',#214,9.525);
#175=CIRCLE('',#216,9.525);
#176=CIRCLE('',#219,9.525);
#177=CIRCLE('',#220,9.525);
#178=CIRCLE('',#222,9.14400000000001);
#179=CIRCLE('',#223,9.52282776514178);
#180=CIRCLE('',#225,9.144);
#181=CIRCLE('',#230,8.9727248826842);
#182=CIRCLE('',#232,9.5249999980657);
#183=CIRCLE('',#234,9.52282776514178);
#184=PRESENTATION_LAYER_ASSIGNMENT('1','Layer 1',(#209,#210,#211,#51));
#185=PRESENTATION_LAYER_ASSIGNMENT('2','Layer 2',(#52));
#186=PRESENTATION_LAYER_ASSIGNMENT('3','Layer 3',(#53));
#187=STYLED_ITEM('',(#193),#209);
#188=STYLED_ITEM('',(#194),#210);
#189=STYLED_ITEM('',(#195),#211);
#190=STYLED_ITEM('',(#196),#51);
#191=STYLED_ITEM('',(#197),#52);
#192=STYLED_ITEM('',(#198),#53);
#193=PRESENTATION_STYLE_ASSIGNMENT((#199));
#194=PRESENTATION_STYLE_ASSIGNMENT((#200));
#195=PRESENTATION_STYLE_ASSIGNMENT((#201));
#196=PRESENTATION_STYLE_ASSIGNMENT((#36));
#197=PRESENTATION_STYLE_ASSIGNMENT((#37));
#198=PRESENTATION_STYLE_ASSIGNMENT((#38));
#199=CURVE_STYLE('',#205,POSITIVE_LENGTH_MEASURE(0.18),#202);
#200=CURVE_STYLE('',#206,POSITIVE_LENGTH_MEASURE(0.18),#202);
#201=CURVE_STYLE('',#207,POSITIVE_LENGTH_MEASURE(0.18),#202);
#202=COLOUR_RGB('Pale Maroon',0.811749446860456,0.603921568627451,0.611749446860456);
#203=COLOUR_RGB('Medium Gray',0.490196078431373,0.490196078431373,0.490196078431373);
#204=COLOUR_RGB('Light Gray',0.8,0.8,0.8);
#205=DRAUGHTING_PRE_DEFINED_CURVE_FONT('continuous');
#206=DRAUGHTING_PRE_DEFINED_CURVE_FONT('continuous');
#207=DRAUGHTING_PRE_DEFINED_CURVE_FONT('continuous');
#208=AXIS2_PLACEMENT_3D('',#295,#237,#238);
#209=AXIS2_PLACEMENT_3D('PCS',#296,#239,#240);
#210=AXIS2_PLACEMENT_3D('MCS',#297,#241,#242);
#211=AXIS2_PLACEMENT_3D('CIP',#298,#243,#244);
#212=AXIS2_PLACEMENT_3D('',#299,#245,#246);
#213=AXIS2_PLACEMENT_3D('',#301,#247,#248);
#214=AXIS2_PLACEMENT_3D('',#302,#249,#250);
#215=AXIS2_PLACEMENT_3D('',#304,#251,#252);
#216=AXIS2_PLACEMENT_3D('',#305,#253,#254);
#217=AXIS2_PLACEMENT_3D('',#307,#255,#256);
#218=AXIS2_PLACEMENT_3D('',#308,#257,#258);
#219=AXIS2_PLACEMENT_3D('',#309,#259,#260);
#220=AXIS2_PLACEMENT_3D('',#311,#261,#262);
#221=AXIS2_PLACEMENT_3D('',#313,#263,#264);
#222=AXIS2_PLACEMENT_3D('',#314,#265,#266);
#223=AXIS2_PLACEMENT_3D('',#316,#267,#268);
#224=AXIS2_PLACEMENT_3D('',#318,#269,#270);
#225=AXIS2_PLACEMENT_3D('',#319,#271,#272);
#226=AXIS2_PLACEMENT_3D('',#321,#273,#274);
#227=AXIS2_PLACEMENT_3D('',#322,#275,#276);
#228=AXIS2_PLACEMENT_3D('',#323,#277,#278);
#229=AXIS2_PLACEMENT_3D('',#324,#279,#280);
#230=AXIS2_PLACEMENT_3D('',#325,#281,#282);
#231=AXIS2_PLACEMENT_3D('',#328,#283,#284);
#232=AXIS2_PLACEMENT_3D('',#329,#285,#286);
#233=AXIS2_PLACEMENT_3D('',#331,#287,#288);
#234=AXIS2_PLACEMENT_3D('',#332,#289,#290);
#235=AXIS2_PLACEMENT_3D('',#334,#291,#292);
#236=AXIS2_PLACEMENT_3D('',#335,#293,#294);
#237=DIRECTION('',(0.,0.,1.));
#238=DIRECTION('',(1.,0.,0.));
#239=DIRECTION('',(0.,0.,1.));
#240=DIRECTION('',(1.,0.,0.));
#241=DIRECTION('',(0.,0.,1.));
#242=DIRECTION('',(1.,0.,0.));
#243=DIRECTION('',(0.,0.,1.));
#244=DIRECTION('',(1.,0.,0.));
#245=DIRECTION('',(0.,0.,-1.));
#246=DIRECTION('',(-1.,0.,0.));
#247=DIRECTION('',(0.,0.,1.));
#248=DIRECTION('',(1.,0.,0.));
#249=DIRECTION('',(0.,0.,-1.));
#250=DIRECTION('',(-1.,0.,0.));
#251=DIRECTION('',(0.,0.,-1.));
#252=DIRECTION('',(-1.,0.,5.49873962816744E-17));
#253=DIRECTION('',(0.,0.,1.));
#254=DIRECTION('',(1.,0.,0.));
#255=DIRECTION('',(0.,0.,-1.));
#256=DIRECTION('',(-1.,0.,0.));
#257=DIRECTION('',(0.,0.,1.));
#258=DIRECTION('',(1.,0.,0.));
#259=DIRECTION('',(0.,0.,-1.));
#260=DIRECTION('',(-1.,0.,0.));
#261=DIRECTION('',(0.,0.,-1.));
#262=DIRECTION('',(1.,0.,0.));
#263=DIRECTION('',(0.,0.,-1.));
#264=DIRECTION('',(-1.,0.,0.));
#265=DIRECTION('',(0.,0.,-1.));
#266=DIRECTION('',(-1.,0.,0.));
#267=DIRECTION('',(0.,0.,-1.));
#268=DIRECTION('',(-1.,0.,0.));
#269=DIRECTION('',(0.,0.,-1.));
#270=DIRECTION('',(-1.,0.,2.98688234801925E-16));
#271=DIRECTION('',(0.,0.,-1.));
#272=DIRECTION('',(-1.,0.,0.));
#273=DIRECTION('',(0.,0.,-1.));
#274=DIRECTION('',(-1.,0.,0.));
#275=DIRECTION('',(0.,0.,-1.));
#276=DIRECTION('',(-1.,0.,0.));
#277=DIRECTION('',(0.,0.,1.));
#278=DIRECTION('',(1.,0.,0.));
#279=DIRECTION('',(0.,0.,-1.));
#280=DIRECTION('',(-1.,0.,0.));
#281=DIRECTION('',(0.,0.,-1.));
#282=DIRECTION('',(-1.,0.,0.));
#283=DIRECTION('',(0.,0.,-1.));
#284=DIRECTION('',(-1.,0.,-8.49904375601465E-18));
#285=DIRECTION('',(0.,0.,-1.));
#286=DIRECTION('',(-1.,0.,0.));
#287=DIRECTION('',(0.,0.,-1.));
#288=DIRECTION('',(-1.,0.,0.));
#289=DIRECTION('',(0.,0.,1.));
#290=DIRECTION('',(-1.,0.,0.));
#291=DIRECTION('',(0.,0.,-1.));
#292=DIRECTION('',(-1.,0.,0.));
#293=DIRECTION('',(0.,0.,-1.));
#294=DIRECTION('',(-1.,0.,0.));
#295=CARTESIAN_POINT('',(0.,0.,0.));
#296=CARTESIAN_POINT('',(0.,0.,51.587));
#297=CARTESIAN_POINT('',(0.,0.,0.));
#298=CARTESIAN_POINT('',(0.,0.,-100.813));
#299=CARTESIAN_POINT('',(0.,0.,51.587));
#300=CARTESIAN_POINT('',(-8.9154,0.,51.587));
#301=CARTESIAN_POINT('',(8.9154,0.,51.587));
#302=CARTESIAN_POINT('',(0.,0.,50.9774));
#303=CARTESIAN_POINT('',(-9.525,0.,50.9774));
#304=CARTESIAN_POINT('',(0.,0.,50.9774));
#305=CARTESIAN_POINT('',(0.,0.,0.));
#306=CARTESIAN_POINT('',(9.525,0.,0.));
#307=CARTESIAN_POINT('',(0.,0.,0.));
#308=CARTESIAN_POINT('',(0.,0.,0.));
#309=CARTESIAN_POINT('',(0.,0.,-9.22431671630887));
#310=CARTESIAN_POINT('',(-9.525,0.,-9.22431671630887));
#311=CARTESIAN_POINT('',(0.,0.,0.));
#312=CARTESIAN_POINT('',(9.525,0.,0.));
#313=CARTESIAN_POINT('',(0.,0.,0.));
#314=CARTESIAN_POINT('',(0.,0.,-73.2645609827851));
#315=CARTESIAN_POINT('',(-9.14400000000001,0.,-73.2645609827851));
#316=CARTESIAN_POINT('',(0.,0.,-75.413));
#317=CARTESIAN_POINT('',(-9.52282776514178,0.,-75.413));
#318=CARTESIAN_POINT('',(0.,0.,-75.413));
#319=CARTESIAN_POINT('',(0.,0.,-11.913));
#320=CARTESIAN_POINT('',(-9.144,0.,-11.913));
#321=CARTESIAN_POINT('',(0.,0.,0.));
#322=CARTESIAN_POINT('',(0.,0.,-11.913));
#323=CARTESIAN_POINT('',(0.,0.,0.));
#324=CARTESIAN_POINT('',(0.,0.,-75.413));
#325=CARTESIAN_POINT('',(0.,0.,-100.811066906631));
#326=CARTESIAN_POINT('',(-8.9727248826842,0.,-100.811066906631));
#327=CARTESIAN_POINT('',(7.99360577730113E-15,0.,-100.026055198459));
#328=CARTESIAN_POINT('',(0.,0.,-100.026055198459));
#329=CARTESIAN_POINT('',(0.,0.,-100.304955668637));
#330=CARTESIAN_POINT('',(-9.5249999980657,0.,-100.304955668637));
#331=CARTESIAN_POINT('',(0.,0.,-100.305));
#332=CARTESIAN_POINT('',(0.,0.,-75.413));
#333=CARTESIAN_POINT('',(-9.52282776514178,0.,-75.413));
#334=CARTESIAN_POINT('',(0.,0.,-100.304955668637));
#335=CARTESIAN_POINT('',(0.,0.,-75.413));
#336=MECHANICAL_DESIGN_GEOMETRIC_PRESENTATION_REPRESENTATION('',(#187,#188,
#189,#190,#191,#192),#337);
#337=(
GEOMETRIC_REPRESENTATION_CONTEXT(3)
GLOBAL_UNCERTAINTY_ASSIGNED_CONTEXT((#338))
GLOBAL_UNIT_ASSIGNED_CONTEXT((#344,#340,#339))
REPRESENTATION_CONTEXT('AN345R.750E3R020','TOP_LEVEL_ASSEMBLY_PART')
);
#338=UNCERTAINTY_MEASURE_WITH_UNIT(LENGTH_MEASURE(2.E-5),#344,
'DISTANCE_ACCURACY_VALUE','Maximum Tolerance applied to model');
#339=(
NAMED_UNIT(*)
SI_UNIT($,.STERADIAN.)
SOLID_ANGLE_UNIT()
);
#340=(
CONVERSION_BASED_UNIT('DEGREE',#342)
NAMED_UNIT(#341)
PLANE_ANGLE_UNIT()
);
#341=DIMENSIONAL_EXPONENTS(0.,0.,0.,0.,0.,0.,0.);
#342=PLANE_ANGLE_MEASURE_WITH_UNIT(PLANE_ANGLE_MEASURE(0.0174532925),#343);
#343=(
NAMED_UNIT(*)
PLANE_ANGLE_UNIT()
SI_UNIT($,.RADIAN.)
);
#344=(
LENGTH_UNIT()
NAMED_UNIT(*)
SI_UNIT(.MILLI.,.METRE.)
);
ENDSEC;
END-ISO-10303-21;
