ISO-10303-21;
HEADER;
/* Generated by software containing ST-Developer
 * from STEP Tools, Inc. (www.steptools.com) 
 */
/* OPTION: using custom schema-name function */

FILE_DESCRIPTION(
/* description */ (''),
/* implementation_level */ '2;1');

FILE_NAME(
/* name */ 'AN345R.500E2R125.0Z3_ANF.stp',
/* time_stamp */ '2020-08-27T10:23:27+06:00',
/* author */ (''),
/* organization */ (''),
/* preprocessor_version */ 'ST-DEVELOPER v16.7',
/* originating_system */ 'SIEMENS PLM Software NX 12.0',
/* authorisation */ '');

FILE_SCHEMA (('AUTOMOTIVE_DESIGN { 1 0 10303 214 3 1 1 1 }'));
ENDSEC;

DATA;
#10=CONSTRUCTIVE_GEOMETRY_REPRESENTATION_RELATIONSHIP(
'supplemental geometry','',#32,#11);
#11=CONSTRUCTIVE_GEOMETRY_REPRESENTATION('supplemental geometry',(#209,
#210,#211),#361);
#12=PROPERTY_DEFINITION_REPRESENTATION(#16,#14);
#13=PROPERTY_DEFINITION_REPRESENTATION(#17,#15);
#14=REPRESENTATION('',(#18),#361);
#15=REPRESENTATION('',(#19),#361);
#16=PROPERTY_DEFINITION('pmi validation property','',#23);
#17=PROPERTY_DEFINITION('pmi validation property','',#23);
#18=VALUE_REPRESENTATION_ITEM('number of annotations',COUNT_MEASURE(0.));
#19=VALUE_REPRESENTATION_ITEM('number of views',COUNT_MEASURE(0.));
#20=SHAPE_REPRESENTATION_RELATIONSHIP('None',
'relationship between INPU5BA41C40piq0-None and INPU5BA41C40piq0-None',
#32,#21);
#21=ADVANCED_BREP_SHAPE_REPRESENTATION('INPU5BA41C40piq0-None',(#51,#52,
#53),#361);
#22=SHAPE_DEFINITION_REPRESENTATION(#23,#32);
#23=PRODUCT_DEFINITION_SHAPE('','',#24);
#24=PRODUCT_DEFINITION(' ','',#26,#25);
#25=PRODUCT_DEFINITION_CONTEXT('part definition',#31,'design');
#26=PRODUCT_DEFINITION_FORMATION_WITH_SPECIFIED_SOURCE(' ',' ',#28,
 .NOT_KNOWN.);
#27=PRODUCT_RELATED_PRODUCT_CATEGORY('part','',(#28));
#28=PRODUCT('INPU5BA41C40piq0','INPU5BA41C40piq0',' ',(#29));
#29=PRODUCT_CONTEXT(' ',#31,'mechanical');
#30=APPLICATION_PROTOCOL_DEFINITION('international standard',
'automotive_design',2010,#31);
#31=APPLICATION_CONTEXT(
'core data for automotive mechanical design processes');
#32=SHAPE_REPRESENTATION('INPU5BA41C40piq0-None',(#208),#361);
#33=(
BOUNDED_SURFACE()
B_SPLINE_SURFACE(3,3,((#328,#329,#330,#331,#332,#333,#334),(#335,#336,#337,
#338,#339,#340,#341),(#342,#343,#344,#345,#346,#347,#348),(#349,#350,#351,
#352,#353,#354,#355)),.UNSPECIFIED.,.F.,.T.,.F.)
B_SPLINE_SURFACE_WITH_KNOTS((4,4),(1,3,3,3,1),(0.,1.),(-0.5,0.,0.5,1.,1.5),
 .UNSPECIFIED.)
GEOMETRIC_REPRESENTATION_ITEM()
RATIONAL_B_SPLINE_SURFACE(((1.,0.333333333333333,0.333333333333333,1.,0.333333333333333,
0.333333333333333,1.),(0.783705358119991,0.26123511937333,0.26123511937333,
0.783705358119991,0.26123511937333,0.26123511937333,0.783705358119991),
(0.783705358119991,0.26123511937333,0.26123511937333,0.783705358119991,
0.26123511937333,0.26123511937333,0.783705358119991),(1.,0.333333333333333,
0.333333333333333,1.,0.333333333333333,0.333333333333333,1.)))
REPRESENTATION_ITEM('')
SURFACE()
);
#34=VERTEX_LOOP('',#159);
#35=TOROIDAL_SURFACE('',#227,15.7734,9.6774);
#36=SURFACE_STYLE_USAGE(.BOTH.,#39);
#37=SURFACE_STYLE_USAGE(.BOTH.,#40);
#38=SURFACE_STYLE_USAGE(.BOTH.,#41);
#39=SURFACE_SIDE_STYLE('',(#42));
#40=SURFACE_SIDE_STYLE('',(#43));
#41=SURFACE_SIDE_STYLE('',(#44));
#42=SURFACE_STYLE_FILL_AREA(#45);
#43=SURFACE_STYLE_FILL_AREA(#46);
#44=SURFACE_STYLE_FILL_AREA(#47);
#45=FILL_AREA_STYLE('',(#48));
#46=FILL_AREA_STYLE('',(#49));
#47=FILL_AREA_STYLE('',(#50));
#48=FILL_AREA_STYLE_COLOUR('',#203);
#49=FILL_AREA_STYLE_COLOUR('',#203);
#50=FILL_AREA_STYLE_COLOUR('',#204);
#51=MANIFOLD_SOLID_BREP('NOCUT',#54);
#52=MANIFOLD_SOLID_BREP('NOCUT',#55);
#53=MANIFOLD_SOLID_BREP('CUT',#56);
#54=CLOSED_SHELL('',(#82,#83,#84,#85));
#55=CLOSED_SHELL('',(#86,#87,#88,#89,#90,#91));
#56=CLOSED_SHELL('',(#92,#93,#94,#95));
#57=CYLINDRICAL_SURFACE('',#217,6.35);
#58=CYLINDRICAL_SURFACE('',#221,6.35);
#59=CYLINDRICAL_SURFACE('',#226,6.096);
#60=CONICAL_SURFACE('',#215,6.35,45.0000000000002);
#61=CONICAL_SURFACE('',#224,6.34889172801168,9.99999999999998);
#62=CONICAL_SURFACE('',#231,2.22044604925031E-15,84.9999999999998);
#63=CONICAL_SURFACE('',#234,6.34999998791051,0.00500000000007699);
#64=FACE_BOUND('',#107,.T.);
#65=FACE_BOUND('',#108,.T.);
#66=FACE_BOUND('',#109,.T.);
#67=FACE_BOUND('',#110,.T.);
#68=FACE_BOUND('',#112,.T.);
#69=FACE_BOUND('',#113,.T.);
#70=FACE_BOUND('',#114,.T.);
#71=FACE_BOUND('',#115,.T.);
#72=FACE_BOUND('',#116,.T.);
#73=FACE_BOUND('',#117,.T.);
#74=FACE_BOUND('',#118,.T.);
#75=FACE_BOUND('',#119,.T.);
#76=FACE_BOUND('',#122,.T.);
#77=FACE_BOUND('',#34,.T.);
#78=FACE_BOUND('',#123,.T.);
#79=FACE_BOUND('',#124,.T.);
#80=FACE_BOUND('',#125,.T.);
#81=FACE_BOUND('',#126,.T.);
#82=ADVANCED_FACE('',(#101),#96,.T.);
#83=ADVANCED_FACE('',(#64,#65),#60,.T.);
#84=ADVANCED_FACE('',(#66,#67),#57,.T.);
#85=ADVANCED_FACE('',(#102),#97,.F.);
#86=ADVANCED_FACE('',(#68,#69),#58,.T.);
#87=ADVANCED_FACE('',(#70,#71),#61,.T.);
#88=ADVANCED_FACE('',(#72,#73),#59,.T.);
#89=ADVANCED_FACE('',(#74,#75),#35,.F.);
#90=ADVANCED_FACE('',(#103),#98,.T.);
#91=ADVANCED_FACE('',(#104),#99,.T.);
#92=ADVANCED_FACE('',(#76,#77),#62,.F.);
#93=ADVANCED_FACE('',(#78,#79),#33,.T.);
#94=ADVANCED_FACE('',(#80,#81),#63,.T.);
#95=ADVANCED_FACE('',(#105),#100,.F.);
#96=PLANE('',#213);
#97=PLANE('',#218);
#98=PLANE('',#228);
#99=PLANE('',#229);
#100=PLANE('',#235);
#101=FACE_OUTER_BOUND('',#106,.T.);
#102=FACE_OUTER_BOUND('',#111,.T.);
#103=FACE_OUTER_BOUND('',#120,.T.);
#104=FACE_OUTER_BOUND('',#121,.T.);
#105=FACE_OUTER_BOUND('',#127,.T.);
#106=EDGE_LOOP('',(#128));
#107=EDGE_LOOP('',(#129));
#108=EDGE_LOOP('',(#130));
#109=EDGE_LOOP('',(#131));
#110=EDGE_LOOP('',(#132));
#111=EDGE_LOOP('',(#133));
#112=EDGE_LOOP('',(#134));
#113=EDGE_LOOP('',(#135));
#114=EDGE_LOOP('',(#136));
#115=EDGE_LOOP('',(#137));
#116=EDGE_LOOP('',(#138));
#117=EDGE_LOOP('',(#139));
#118=EDGE_LOOP('',(#140));
#119=EDGE_LOOP('',(#141));
#120=EDGE_LOOP('',(#142));
#121=EDGE_LOOP('',(#143));
#122=EDGE_LOOP('',(#144));
#123=EDGE_LOOP('',(#145));
#124=EDGE_LOOP('',(#146));
#125=EDGE_LOOP('',(#147));
#126=EDGE_LOOP('',(#148));
#127=EDGE_LOOP('',(#149));
#128=ORIENTED_EDGE('',*,*,#162,.F.);
#129=ORIENTED_EDGE('',*,*,#162,.T.);
#130=ORIENTED_EDGE('',*,*,#163,.F.);
#131=ORIENTED_EDGE('',*,*,#164,.T.);
#132=ORIENTED_EDGE('',*,*,#163,.T.);
#133=ORIENTED_EDGE('',*,*,#164,.F.);
#134=ORIENTED_EDGE('',*,*,#165,.F.);
#135=ORIENTED_EDGE('',*,*,#166,.T.);
#136=ORIENTED_EDGE('',*,*,#167,.T.);
#137=ORIENTED_EDGE('',*,*,#168,.F.);
#138=ORIENTED_EDGE('',*,*,#169,.T.);
#139=ORIENTED_EDGE('',*,*,#167,.F.);
#140=ORIENTED_EDGE('',*,*,#165,.T.);
#141=ORIENTED_EDGE('',*,*,#169,.F.);
#142=ORIENTED_EDGE('',*,*,#166,.F.);
#143=ORIENTED_EDGE('',*,*,#168,.T.);
#144=ORIENTED_EDGE('',*,*,#170,.T.);
#145=ORIENTED_EDGE('',*,*,#171,.T.);
#146=ORIENTED_EDGE('',*,*,#170,.F.);
#147=ORIENTED_EDGE('',*,*,#172,.F.);
#148=ORIENTED_EDGE('',*,*,#171,.F.);
#149=ORIENTED_EDGE('',*,*,#172,.T.);
#150=VERTEX_POINT('',#297);
#151=VERTEX_POINT('',#300);
#152=VERTEX_POINT('',#303);
#153=VERTEX_POINT('',#307);
#154=VERTEX_POINT('',#309);
#155=VERTEX_POINT('',#312);
#156=VERTEX_POINT('',#314);
#157=VERTEX_POINT('',#317);
#158=VERTEX_POINT('',#323);
#159=VERTEX_POINT('',#324);
#160=VERTEX_POINT('',#327);
#161=VERTEX_POINT('',#357);
#162=EDGE_CURVE('',#150,#150,#173,.T.);
#163=EDGE_CURVE('',#151,#151,#174,.T.);
#164=EDGE_CURVE('',#152,#152,#175,.T.);
#165=EDGE_CURVE('',#153,#153,#176,.T.);
#166=EDGE_CURVE('',#154,#154,#177,.T.);
#167=EDGE_CURVE('',#155,#155,#178,.T.);
#168=EDGE_CURVE('',#156,#156,#179,.T.);
#169=EDGE_CURVE('',#157,#157,#180,.T.);
#170=EDGE_CURVE('',#158,#158,#181,.T.);
#171=EDGE_CURVE('',#160,#160,#182,.T.);
#172=EDGE_CURVE('',#161,#161,#183,.T.);
#173=CIRCLE('',#212,5.7404);
#174=CIRCLE('',#214,6.35);
#175=CIRCLE('',#216,6.35);
#176=CIRCLE('',#219,6.35);
#177=CIRCLE('',#220,6.35);
#178=CIRCLE('',#222,6.096);
#179=CIRCLE('',#223,6.34889172801168);
#180=CIRCLE('',#225,6.096);
#181=CIRCLE('',#230,2.89828051677619);
#182=CIRCLE('',#232,6.34999998791051);
#183=CIRCLE('',#233,6.34889172801168);
#184=PRESENTATION_LAYER_ASSIGNMENT('1','Layer 1',(#209,#210,#211,#51));
#185=PRESENTATION_LAYER_ASSIGNMENT('2','Layer 2',(#52));
#186=PRESENTATION_LAYER_ASSIGNMENT('3','Layer 3',(#53));
#187=STYLED_ITEM('',(#193),#209);
#188=STYLED_ITEM('',(#194),#210);
#189=STYLED_ITEM('',(#195),#211);
#190=STYLED_ITEM('',(#196),#51);
#191=STYLED_ITEM('',(#197),#52);
#192=STYLED_ITEM('',(#198),#53);
#193=PRESENTATION_STYLE_ASSIGNMENT((#199));
#194=PRESENTATION_STYLE_ASSIGNMENT((#200));
#195=PRESENTATION_STYLE_ASSIGNMENT((#201));
#196=PRESENTATION_STYLE_ASSIGNMENT((#36));
#197=PRESENTATION_STYLE_ASSIGNMENT((#37));
#198=PRESENTATION_STYLE_ASSIGNMENT((#38));
#199=CURVE_STYLE('',#205,POSITIVE_LENGTH_MEASURE(0.18),#202);
#200=CURVE_STYLE('',#206,POSITIVE_LENGTH_MEASURE(0.18),#202);
#201=CURVE_STYLE('',#207,POSITIVE_LENGTH_MEASURE(0.18),#202);
#202=COLOUR_RGB('Pale Maroon',0.811749446860456,0.603921568627451,0.611749446860456);
#203=COLOUR_RGB('Medium Gray',0.490196078431373,0.490196078431373,0.490196078431373);
#204=COLOUR_RGB('Light Gray',0.8,0.8,0.8);
#205=DRAUGHTING_PRE_DEFINED_CURVE_FONT('continuous');
#206=DRAUGHTING_PRE_DEFINED_CURVE_FONT('continuous');
#207=DRAUGHTING_PRE_DEFINED_CURVE_FONT('continuous');
#208=AXIS2_PLACEMENT_3D('',#292,#236,#237);
#209=AXIS2_PLACEMENT_3D('PCS',#293,#238,#239);
#210=AXIS2_PLACEMENT_3D('MCS',#294,#240,#241);
#211=AXIS2_PLACEMENT_3D('CIP',#295,#242,#243);
#212=AXIS2_PLACEMENT_3D('',#296,#244,#245);
#213=AXIS2_PLACEMENT_3D('',#298,#246,#247);
#214=AXIS2_PLACEMENT_3D('',#299,#248,#249);
#215=AXIS2_PLACEMENT_3D('',#301,#250,#251);
#216=AXIS2_PLACEMENT_3D('',#302,#252,#253);
#217=AXIS2_PLACEMENT_3D('',#304,#254,#255);
#218=AXIS2_PLACEMENT_3D('',#305,#256,#257);
#219=AXIS2_PLACEMENT_3D('',#306,#258,#259);
#220=AXIS2_PLACEMENT_3D('',#308,#260,#261);
#221=AXIS2_PLACEMENT_3D('',#310,#262,#263);
#222=AXIS2_PLACEMENT_3D('',#311,#264,#265);
#223=AXIS2_PLACEMENT_3D('',#313,#266,#267);
#224=AXIS2_PLACEMENT_3D('',#315,#268,#269);
#225=AXIS2_PLACEMENT_3D('',#316,#270,#271);
#226=AXIS2_PLACEMENT_3D('',#318,#272,#273);
#227=AXIS2_PLACEMENT_3D('',#319,#274,#275);
#228=AXIS2_PLACEMENT_3D('',#320,#276,#277);
#229=AXIS2_PLACEMENT_3D('',#321,#278,#279);
#230=AXIS2_PLACEMENT_3D('',#322,#280,#281);
#231=AXIS2_PLACEMENT_3D('',#325,#282,#283);
#232=AXIS2_PLACEMENT_3D('',#326,#284,#285);
#233=AXIS2_PLACEMENT_3D('',#356,#286,#287);
#234=AXIS2_PLACEMENT_3D('',#358,#288,#289);
#235=AXIS2_PLACEMENT_3D('',#359,#290,#291);
#236=DIRECTION('',(0.,0.,1.));
#237=DIRECTION('',(1.,0.,0.));
#238=DIRECTION('',(0.,0.,1.));
#239=DIRECTION('',(1.,0.,0.));
#240=DIRECTION('',(0.,0.,1.));
#241=DIRECTION('',(1.,0.,0.));
#242=DIRECTION('',(0.,0.,1.));
#243=DIRECTION('',(1.,0.,0.));
#244=DIRECTION('',(0.,0.,-1.));
#245=DIRECTION('',(-1.,0.,0.));
#246=DIRECTION('',(0.,0.,1.));
#247=DIRECTION('',(1.,0.,0.));
#248=DIRECTION('',(0.,0.,-1.));
#249=DIRECTION('',(-1.,0.,0.));
#250=DIRECTION('',(0.,0.,-1.));
#251=DIRECTION('',(-1.,0.,-2.06853298670656E-17));
#252=DIRECTION('',(0.,0.,1.));
#253=DIRECTION('',(1.,0.,0.));
#254=DIRECTION('',(0.,0.,-1.));
#255=DIRECTION('',(-1.,0.,0.));
#256=DIRECTION('',(0.,0.,1.));
#257=DIRECTION('',(1.,0.,0.));
#258=DIRECTION('',(0.,0.,-1.));
#259=DIRECTION('',(-1.,0.,0.));
#260=DIRECTION('',(0.,0.,-1.));
#261=DIRECTION('',(1.,0.,0.));
#262=DIRECTION('',(0.,0.,-1.));
#263=DIRECTION('',(-1.,0.,0.));
#264=DIRECTION('',(0.,0.,-1.));
#265=DIRECTION('',(-1.,0.,0.));
#266=DIRECTION('',(0.,0.,-1.));
#267=DIRECTION('',(-1.,0.,0.));
#268=DIRECTION('',(0.,0.,-1.));
#269=DIRECTION('',(-1.,0.,-4.93801505079233E-16));
#270=DIRECTION('',(0.,0.,-1.));
#271=DIRECTION('',(-1.,0.,0.));
#272=DIRECTION('',(0.,0.,-1.));
#273=DIRECTION('',(-1.,0.,0.));
#274=DIRECTION('',(0.,0.,-1.));
#275=DIRECTION('',(-1.,0.,0.));
#276=DIRECTION('',(0.,0.,1.));
#277=DIRECTION('',(1.,0.,0.));
#278=DIRECTION('',(0.,0.,-1.));
#279=DIRECTION('',(-1.,0.,0.));
#280=DIRECTION('',(0.,0.,-1.));
#281=DIRECTION('',(-1.,0.,0.));
#282=DIRECTION('',(0.,0.,-1.));
#283=DIRECTION('',(-1.,0.,-6.07074554001046E-18));
#284=DIRECTION('',(0.,0.,-1.));
#285=DIRECTION('',(-1.,0.,0.));
#286=DIRECTION('',(0.,0.,1.));
#287=DIRECTION('',(-1.,0.,0.));
#288=DIRECTION('',(0.,0.,-1.));
#289=DIRECTION('',(-1.,0.,-1.18571809209928E-14));
#290=DIRECTION('',(0.,0.,-1.));
#291=DIRECTION('',(-1.,0.,0.));
#292=CARTESIAN_POINT('',(0.,0.,0.));
#293=CARTESIAN_POINT('',(0.,0.,45.237));
#294=CARTESIAN_POINT('',(0.,0.,0.));
#295=CARTESIAN_POINT('',(0.,0.,-56.363));
#296=CARTESIAN_POINT('',(0.,0.,45.237));
#297=CARTESIAN_POINT('',(-5.7404,0.,45.237));
#298=CARTESIAN_POINT('',(5.7404,0.,45.237));
#299=CARTESIAN_POINT('',(0.,0.,44.6274));
#300=CARTESIAN_POINT('',(-6.35,0.,44.6274));
#301=CARTESIAN_POINT('',(0.,0.,44.6274));
#302=CARTESIAN_POINT('',(0.,0.,0.));
#303=CARTESIAN_POINT('',(6.35,0.,0.));
#304=CARTESIAN_POINT('',(0.,0.,0.));
#305=CARTESIAN_POINT('',(0.,0.,0.));
#306=CARTESIAN_POINT('',(0.,0.,-0.185364487710203));
#307=CARTESIAN_POINT('',(-6.35,0.,-0.185364487710203));
#308=CARTESIAN_POINT('',(0.,0.,0.));
#309=CARTESIAN_POINT('',(6.35,0.,0.));
#310=CARTESIAN_POINT('',(0.,0.,0.));
#311=CARTESIAN_POINT('',(0.,0.,-39.0537797405957));
#312=CARTESIAN_POINT('',(-6.096,0.,-39.0537797405957));
#313=CARTESIAN_POINT('',(0.,0.,-40.488));
#314=CARTESIAN_POINT('',(-6.34889172801168,0.,-40.488));
#315=CARTESIAN_POINT('',(0.,0.,-40.488));
#316=CARTESIAN_POINT('',(0.,0.,-2.38799999999998));
#317=CARTESIAN_POINT('',(-6.096,0.,-2.38799999999998));
#318=CARTESIAN_POINT('',(0.,0.,0.));
#319=CARTESIAN_POINT('',(0.,0.,-2.38799999999998));
#320=CARTESIAN_POINT('',(0.,0.,0.));
#321=CARTESIAN_POINT('',(0.,0.,-40.488));
#322=CARTESIAN_POINT('',(0.,0.,-56.3509181664413));
#323=CARTESIAN_POINT('',(-2.89828051677619,0.,-56.3509181664413));
#324=CARTESIAN_POINT('',(2.22044604925031E-15,0.,-56.0973514775053));
#325=CARTESIAN_POINT('',(0.,0.,-56.0973514775053));
#326=CARTESIAN_POINT('',(0.,0.,-53.1877229289816));
#327=CARTESIAN_POINT('',(-6.34999998791051,0.,-53.1877229289816));
#328=CARTESIAN_POINT('',(-2.89828051677619,0.,-56.3509181664413));
#329=CARTESIAN_POINT('',(-2.89828051677619,5.79656103355237,-56.3509181664413));
#330=CARTESIAN_POINT('',(2.89828051677619,5.79656103355237,-56.3509181664413));
#331=CARTESIAN_POINT('',(2.89828051677619,0.,-56.3509181664413));
#332=CARTESIAN_POINT('',(2.89828051677619,-5.79656103355237,-56.3509181664413));
#333=CARTESIAN_POINT('',(-2.89828051677619,-5.79656103355237,-56.3509181664413));
#334=CARTESIAN_POINT('',(-2.89828051677619,0.,-56.3509181664413));
#335=CARTESIAN_POINT('',(-4.88205421693278,0.,-56.5244758762059));
#336=CARTESIAN_POINT('',(-4.88205421693278,9.76410843386556,-56.5244758762059));
#337=CARTESIAN_POINT('',(4.88205421693278,9.76410843386556,-56.5244758762059));
#338=CARTESIAN_POINT('',(4.88205421693278,0.,-56.5244758762059));
#339=CARTESIAN_POINT('',(4.88205421693278,-9.76410843386556,-56.5244758762059));
#340=CARTESIAN_POINT('',(-4.88205421693278,-9.76410843386556,-56.5244758762059));
#341=CARTESIAN_POINT('',(-4.88205421693278,0.,-56.5244758762059));
#342=CARTESIAN_POINT('',(-6.3501737661022,0.,-55.179074314813));
#343=CARTESIAN_POINT('',(-6.3501737661022,12.7003475322044,-55.179074314813));
#344=CARTESIAN_POINT('',(6.3501737661022,12.7003475322044,-55.179074314813));
#345=CARTESIAN_POINT('',(6.3501737661022,0.,-55.179074314813));
#346=CARTESIAN_POINT('',(6.3501737661022,-12.7003475322044,-55.179074314813));
#347=CARTESIAN_POINT('',(-6.3501737661022,-12.7003475322044,-55.179074314813));
#348=CARTESIAN_POINT('',(-6.3501737661022,0.,-55.179074314813));
#349=CARTESIAN_POINT('',(-6.34999998791052,0.,-53.1877229289816));
#350=CARTESIAN_POINT('',(-6.34999998791052,12.699999975821,-53.1877229289816));
#351=CARTESIAN_POINT('',(6.34999998791052,12.699999975821,-53.1877229289816));
#352=CARTESIAN_POINT('',(6.34999998791052,0.,-53.1877229289816));
#353=CARTESIAN_POINT('',(6.34999998791052,-12.699999975821,-53.1877229289816));
#354=CARTESIAN_POINT('',(-6.34999998791052,-12.699999975821,-53.1877229289816));
#355=CARTESIAN_POINT('',(-6.34999998791052,0.,-53.1877229289816));
#356=CARTESIAN_POINT('',(0.,0.,-40.488));
#357=CARTESIAN_POINT('',(-6.34889172801168,0.,-40.488));
#358=CARTESIAN_POINT('',(0.,0.,-53.1877229289816));
#359=CARTESIAN_POINT('',(0.,0.,-40.488));
#360=MECHANICAL_DESIGN_GEOMETRIC_PRESENTATION_REPRESENTATION('',(#187,#188,
#189,#190,#191,#192),#361);
#361=(
GEOMETRIC_REPRESENTATION_CONTEXT(3)
GLOBAL_UNCERTAINTY_ASSIGNED_CONTEXT((#362))
GLOBAL_UNIT_ASSIGNED_CONTEXT((#368,#364,#363))
REPRESENTATION_CONTEXT('AN345R.500E2R125','TOP_LEVEL_ASSEMBLY_PART')
);
#362=UNCERTAINTY_MEASURE_WITH_UNIT(LENGTH_MEASURE(0.0254),#368,
'DISTANCE_ACCURACY_VALUE','Maximum Tolerance applied to model');
#363=(
NAMED_UNIT(*)
SI_UNIT($,.STERADIAN.)
SOLID_ANGLE_UNIT()
);
#364=(
CONVERSION_BASED_UNIT('DEGREE',#366)
NAMED_UNIT(#365)
PLANE_ANGLE_UNIT()
);
#365=DIMENSIONAL_EXPONENTS(0.,0.,0.,0.,0.,0.,0.);
#366=PLANE_ANGLE_MEASURE_WITH_UNIT(PLANE_ANGLE_MEASURE(0.0174532925),#367);
#367=(
NAMED_UNIT(*)
PLANE_ANGLE_UNIT()
SI_UNIT($,.RADIAN.)
);
#368=(
LENGTH_UNIT()
NAMED_UNIT(*)
SI_UNIT(.MILLI.,.METRE.)
);
ENDSEC;
END-ISO-10303-21;
