ISO-10303-21;
HEADER;
/* Generated by software containing ST-Developer
 * from STEP Tools, Inc. (www.steptools.com) 
 */
/* OPTION: using custom schema-name function */

FILE_DESCRIPTION(
/* description */ (''),
/* implementation_level */ '2;1');

FILE_NAME(
/* name */ 'AN345.500E4S.0Z3_ANF.stp',
/* time_stamp */ '2020-08-27T09:27:16+06:00',
/* author */ (''),
/* organization */ (''),
/* preprocessor_version */ 'ST-DEVELOPER v16.7',
/* originating_system */ 'SIEMENS PLM Software NX 12.0',
/* authorisation */ '');

FILE_SCHEMA (('AUTOMOTIVE_DESIGN { 1 0 10303 214 3 1 1 1 }'));
ENDSEC;

DATA;
#10=CONSTRUCTIVE_GEOMETRY_REPRESENTATION_RELATIONSHIP(
'supplemental geometry','',#32,#11);
#11=CONSTRUCTIVE_GEOMETRY_REPRESENTATION('supplemental geometry',(#198,
#199,#200),#317);
#12=PROPERTY_DEFINITION_REPRESENTATION(#16,#14);
#13=PROPERTY_DEFINITION_REPRESENTATION(#17,#15);
#14=REPRESENTATION('',(#18),#317);
#15=REPRESENTATION('',(#19),#317);
#16=PROPERTY_DEFINITION('pmi validation property','',#23);
#17=PROPERTY_DEFINITION('pmi validation property','',#23);
#18=VALUE_REPRESENTATION_ITEM('number of annotations',COUNT_MEASURE(0.));
#19=VALUE_REPRESENTATION_ITEM('number of views',COUNT_MEASURE(0.));
#20=SHAPE_REPRESENTATION_RELATIONSHIP('None',
'relationship between INPU87347B64pfd9-None and INPU87347B64pfd9-None',
#32,#21);
#21=ADVANCED_BREP_SHAPE_REPRESENTATION('INPU87347B64pfd9-None',(#50,#51,
#52),#317);
#22=SHAPE_DEFINITION_REPRESENTATION(#23,#32);
#23=PRODUCT_DEFINITION_SHAPE('','',#24);
#24=PRODUCT_DEFINITION(' ','',#26,#25);
#25=PRODUCT_DEFINITION_CONTEXT('part definition',#31,'design');
#26=PRODUCT_DEFINITION_FORMATION_WITH_SPECIFIED_SOURCE(' ',' ',#28,
 .NOT_KNOWN.);
#27=PRODUCT_RELATED_PRODUCT_CATEGORY('part','',(#28));
#28=PRODUCT('INPU87347B64pfd9','INPU87347B64pfd9',' ',(#29));
#29=PRODUCT_CONTEXT(' ',#31,'mechanical');
#30=APPLICATION_PROTOCOL_DEFINITION('international standard',
'automotive_design',2010,#31);
#31=APPLICATION_CONTEXT(
'core data for automotive mechanical design processes');
#32=SHAPE_REPRESENTATION('INPU87347B64pfd9-None',(#197),#317);
#33=VERTEX_LOOP('',#151);
#34=TOROIDAL_SURFACE('',#216,6.477,0.381000000000001);
#35=SURFACE_STYLE_USAGE(.BOTH.,#38);
#36=SURFACE_STYLE_USAGE(.BOTH.,#39);
#37=SURFACE_STYLE_USAGE(.BOTH.,#40);
#38=SURFACE_SIDE_STYLE('',(#41));
#39=SURFACE_SIDE_STYLE('',(#42));
#40=SURFACE_SIDE_STYLE('',(#43));
#41=SURFACE_STYLE_FILL_AREA(#44);
#42=SURFACE_STYLE_FILL_AREA(#45);
#43=SURFACE_STYLE_FILL_AREA(#46);
#44=FILL_AREA_STYLE('',(#47));
#45=FILL_AREA_STYLE('',(#48));
#46=FILL_AREA_STYLE('',(#49));
#47=FILL_AREA_STYLE_COLOUR('',#192);
#48=FILL_AREA_STYLE_COLOUR('',#192);
#49=FILL_AREA_STYLE_COLOUR('',#193);
#50=MANIFOLD_SOLID_BREP('NOCUT',#53);
#51=MANIFOLD_SOLID_BREP('NOCUT',#54);
#52=MANIFOLD_SOLID_BREP('CUT',#55);
#53=CLOSED_SHELL('',(#79,#80,#81,#82));
#54=CLOSED_SHELL('',(#83,#84,#85,#86,#87,#88));
#55=CLOSED_SHELL('',(#89,#90,#91));
#56=CYLINDRICAL_SURFACE('',#206,6.35);
#57=CYLINDRICAL_SURFACE('',#210,6.35);
#58=CYLINDRICAL_SURFACE('',#215,6.096);
#59=CONICAL_SURFACE('',#204,6.35,45.0000000000002);
#60=CONICAL_SURFACE('',#213,6.34861464490272,10.);
#61=CONICAL_SURFACE('',#220,5.32907051820075E-15,84.9999999999999);
#62=CONICAL_SURFACE('',#222,6.35,0.00500000000000277);
#63=FACE_BOUND('',#103,.T.);
#64=FACE_BOUND('',#104,.T.);
#65=FACE_BOUND('',#105,.T.);
#66=FACE_BOUND('',#106,.T.);
#67=FACE_BOUND('',#108,.T.);
#68=FACE_BOUND('',#109,.T.);
#69=FACE_BOUND('',#110,.T.);
#70=FACE_BOUND('',#111,.T.);
#71=FACE_BOUND('',#112,.T.);
#72=FACE_BOUND('',#113,.T.);
#73=FACE_BOUND('',#114,.T.);
#74=FACE_BOUND('',#115,.T.);
#75=FACE_BOUND('',#118,.T.);
#76=FACE_BOUND('',#33,.T.);
#77=FACE_BOUND('',#119,.T.);
#78=FACE_BOUND('',#120,.T.);
#79=ADVANCED_FACE('',(#97),#92,.T.);
#80=ADVANCED_FACE('',(#63,#64),#59,.T.);
#81=ADVANCED_FACE('',(#65,#66),#56,.T.);
#82=ADVANCED_FACE('',(#98),#93,.F.);
#83=ADVANCED_FACE('',(#67,#68),#57,.T.);
#84=ADVANCED_FACE('',(#69,#70),#60,.T.);
#85=ADVANCED_FACE('',(#71,#72),#58,.T.);
#86=ADVANCED_FACE('',(#73,#74),#34,.F.);
#87=ADVANCED_FACE('',(#99),#94,.T.);
#88=ADVANCED_FACE('',(#100),#95,.T.);
#89=ADVANCED_FACE('',(#75,#76),#61,.F.);
#90=ADVANCED_FACE('',(#77,#78),#62,.T.);
#91=ADVANCED_FACE('',(#101),#96,.F.);
#92=PLANE('',#202);
#93=PLANE('',#207);
#94=PLANE('',#217);
#95=PLANE('',#218);
#96=PLANE('',#223);
#97=FACE_OUTER_BOUND('',#102,.T.);
#98=FACE_OUTER_BOUND('',#107,.T.);
#99=FACE_OUTER_BOUND('',#116,.T.);
#100=FACE_OUTER_BOUND('',#117,.T.);
#101=FACE_OUTER_BOUND('',#121,.T.);
#102=EDGE_LOOP('',(#122));
#103=EDGE_LOOP('',(#123));
#104=EDGE_LOOP('',(#124));
#105=EDGE_LOOP('',(#125));
#106=EDGE_LOOP('',(#126));
#107=EDGE_LOOP('',(#127));
#108=EDGE_LOOP('',(#128));
#109=EDGE_LOOP('',(#129));
#110=EDGE_LOOP('',(#130));
#111=EDGE_LOOP('',(#131));
#112=EDGE_LOOP('',(#132));
#113=EDGE_LOOP('',(#133));
#114=EDGE_LOOP('',(#134));
#115=EDGE_LOOP('',(#135));
#116=EDGE_LOOP('',(#136));
#117=EDGE_LOOP('',(#137));
#118=EDGE_LOOP('',(#138));
#119=EDGE_LOOP('',(#139));
#120=EDGE_LOOP('',(#140));
#121=EDGE_LOOP('',(#141));
#122=ORIENTED_EDGE('',*,*,#153,.F.);
#123=ORIENTED_EDGE('',*,*,#153,.T.);
#124=ORIENTED_EDGE('',*,*,#154,.F.);
#125=ORIENTED_EDGE('',*,*,#155,.F.);
#126=ORIENTED_EDGE('',*,*,#154,.T.);
#127=ORIENTED_EDGE('',*,*,#155,.T.);
#128=ORIENTED_EDGE('',*,*,#156,.F.);
#129=ORIENTED_EDGE('',*,*,#157,.F.);
#130=ORIENTED_EDGE('',*,*,#158,.T.);
#131=ORIENTED_EDGE('',*,*,#159,.F.);
#132=ORIENTED_EDGE('',*,*,#160,.T.);
#133=ORIENTED_EDGE('',*,*,#158,.F.);
#134=ORIENTED_EDGE('',*,*,#156,.T.);
#135=ORIENTED_EDGE('',*,*,#160,.F.);
#136=ORIENTED_EDGE('',*,*,#157,.T.);
#137=ORIENTED_EDGE('',*,*,#159,.T.);
#138=ORIENTED_EDGE('',*,*,#161,.T.);
#139=ORIENTED_EDGE('',*,*,#162,.F.);
#140=ORIENTED_EDGE('',*,*,#161,.F.);
#141=ORIENTED_EDGE('',*,*,#162,.T.);
#142=VERTEX_POINT('',#283);
#143=VERTEX_POINT('',#286);
#144=VERTEX_POINT('',#289);
#145=VERTEX_POINT('',#293);
#146=VERTEX_POINT('',#295);
#147=VERTEX_POINT('',#298);
#148=VERTEX_POINT('',#300);
#149=VERTEX_POINT('',#303);
#150=VERTEX_POINT('',#309);
#151=VERTEX_POINT('',#310);
#152=VERTEX_POINT('',#313);
#153=EDGE_CURVE('',#142,#142,#163,.T.);
#154=EDGE_CURVE('',#143,#143,#164,.T.);
#155=EDGE_CURVE('',#144,#144,#165,.T.);
#156=EDGE_CURVE('',#145,#145,#166,.T.);
#157=EDGE_CURVE('',#146,#146,#167,.T.);
#158=EDGE_CURVE('',#147,#147,#168,.T.);
#159=EDGE_CURVE('',#148,#148,#169,.T.);
#160=EDGE_CURVE('',#149,#149,#170,.T.);
#161=EDGE_CURVE('',#150,#150,#171,.T.);
#162=EDGE_CURVE('',#152,#152,#172,.T.);
#163=CIRCLE('',#201,5.7404);
#164=CIRCLE('',#203,6.35);
#165=CIRCLE('',#205,6.35);
#166=CIRCLE('',#208,6.35000000000001);
#167=CIRCLE('',#209,6.35);
#168=CIRCLE('',#211,6.09600000000001);
#169=CIRCLE('',#212,6.34861464490272);
#170=CIRCLE('',#214,6.096);
#171=CIRCLE('',#219,6.35);
#172=CIRCLE('',#221,6.34861464490272);
#173=PRESENTATION_LAYER_ASSIGNMENT('1','Layer 1',(#198,#199,#200,#50));
#174=PRESENTATION_LAYER_ASSIGNMENT('2','Layer 2',(#51));
#175=PRESENTATION_LAYER_ASSIGNMENT('3','Layer 3',(#52));
#176=STYLED_ITEM('',(#182),#198);
#177=STYLED_ITEM('',(#183),#199);
#178=STYLED_ITEM('',(#184),#200);
#179=STYLED_ITEM('',(#185),#50);
#180=STYLED_ITEM('',(#186),#51);
#181=STYLED_ITEM('',(#187),#52);
#182=PRESENTATION_STYLE_ASSIGNMENT((#188));
#183=PRESENTATION_STYLE_ASSIGNMENT((#189));
#184=PRESENTATION_STYLE_ASSIGNMENT((#190));
#185=PRESENTATION_STYLE_ASSIGNMENT((#35));
#186=PRESENTATION_STYLE_ASSIGNMENT((#36));
#187=PRESENTATION_STYLE_ASSIGNMENT((#37));
#188=CURVE_STYLE('',#194,POSITIVE_LENGTH_MEASURE(0.18),#191);
#189=CURVE_STYLE('',#195,POSITIVE_LENGTH_MEASURE(0.18),#191);
#190=CURVE_STYLE('',#196,POSITIVE_LENGTH_MEASURE(0.18),#191);
#191=COLOUR_RGB('Pale Maroon',0.811749446860456,0.603921568627451,0.611749446860456);
#192=COLOUR_RGB('Medium Gray',0.490196078431373,0.490196078431373,0.490196078431373);
#193=COLOUR_RGB('Light Gray',0.8,0.8,0.8);
#194=DRAUGHTING_PRE_DEFINED_CURVE_FONT('continuous');
#195=DRAUGHTING_PRE_DEFINED_CURVE_FONT('continuous');
#196=DRAUGHTING_PRE_DEFINED_CURVE_FONT('continuous');
#197=AXIS2_PLACEMENT_3D('',#278,#224,#225);
#198=AXIS2_PLACEMENT_3D('PCS',#279,#226,#227);
#199=AXIS2_PLACEMENT_3D('MCS',#280,#228,#229);
#200=AXIS2_PLACEMENT_3D('CIP',#281,#230,#231);
#201=AXIS2_PLACEMENT_3D('',#282,#232,#233);
#202=AXIS2_PLACEMENT_3D('',#284,#234,#235);
#203=AXIS2_PLACEMENT_3D('',#285,#236,#237);
#204=AXIS2_PLACEMENT_3D('',#287,#238,#239);
#205=AXIS2_PLACEMENT_3D('',#288,#240,#241);
#206=AXIS2_PLACEMENT_3D('',#290,#242,#243);
#207=AXIS2_PLACEMENT_3D('',#291,#244,#245);
#208=AXIS2_PLACEMENT_3D('',#292,#246,#247);
#209=AXIS2_PLACEMENT_3D('',#294,#248,#249);
#210=AXIS2_PLACEMENT_3D('',#296,#250,#251);
#211=AXIS2_PLACEMENT_3D('',#297,#252,#253);
#212=AXIS2_PLACEMENT_3D('',#299,#254,#255);
#213=AXIS2_PLACEMENT_3D('',#301,#256,#257);
#214=AXIS2_PLACEMENT_3D('',#302,#258,#259);
#215=AXIS2_PLACEMENT_3D('',#304,#260,#261);
#216=AXIS2_PLACEMENT_3D('',#305,#262,#263);
#217=AXIS2_PLACEMENT_3D('',#306,#264,#265);
#218=AXIS2_PLACEMENT_3D('',#307,#266,#267);
#219=AXIS2_PLACEMENT_3D('',#308,#268,#269);
#220=AXIS2_PLACEMENT_3D('',#311,#270,#271);
#221=AXIS2_PLACEMENT_3D('',#312,#272,#273);
#222=AXIS2_PLACEMENT_3D('',#314,#274,#275);
#223=AXIS2_PLACEMENT_3D('',#315,#276,#277);
#224=DIRECTION('',(0.,0.,1.));
#225=DIRECTION('',(1.,0.,0.));
#226=DIRECTION('',(0.,0.,1.));
#227=DIRECTION('',(1.,0.,0.));
#228=DIRECTION('',(0.,0.,1.));
#229=DIRECTION('',(1.,0.,0.));
#230=DIRECTION('',(0.,0.,1.));
#231=DIRECTION('',(1.,0.,0.));
#232=DIRECTION('',(0.,0.,-1.));
#233=DIRECTION('',(-1.,0.,0.));
#234=DIRECTION('',(0.,0.,1.));
#235=DIRECTION('',(1.,0.,0.));
#236=DIRECTION('',(0.,0.,-1.));
#237=DIRECTION('',(-1.,0.,0.));
#238=DIRECTION('',(0.,0.,-1.));
#239=DIRECTION('',(-1.,0.,-2.06853298670656E-17));
#240=DIRECTION('',(0.,0.,-1.));
#241=DIRECTION('',(1.,0.,0.));
#242=DIRECTION('',(0.,0.,-1.));
#243=DIRECTION('',(-1.,0.,0.));
#244=DIRECTION('',(0.,0.,1.));
#245=DIRECTION('',(1.,0.,0.));
#246=DIRECTION('',(0.,0.,-1.));
#247=DIRECTION('',(-1.,0.,0.));
#248=DIRECTION('',(0.,0.,1.));
#249=DIRECTION('',(1.,0.,0.));
#250=DIRECTION('',(0.,0.,-1.));
#251=DIRECTION('',(-1.,0.,0.));
#252=DIRECTION('',(0.,0.,-1.));
#253=DIRECTION('',(-1.,0.,0.));
#254=DIRECTION('',(0.,0.,-1.));
#255=DIRECTION('',(-1.,0.,0.));
#256=DIRECTION('',(0.,0.,-1.));
#257=DIRECTION('',(-1.,0.,3.03878310202723E-16));
#258=DIRECTION('',(0.,0.,-1.));
#259=DIRECTION('',(-1.,0.,0.));
#260=DIRECTION('',(0.,0.,-1.));
#261=DIRECTION('',(-1.,0.,0.));
#262=DIRECTION('',(0.,0.,-1.));
#263=DIRECTION('',(-1.,0.,0.));
#264=DIRECTION('',(0.,0.,1.));
#265=DIRECTION('',(1.,0.,0.));
#266=DIRECTION('',(0.,0.,-1.));
#267=DIRECTION('',(-1.,0.,0.));
#268=DIRECTION('',(0.,0.,-1.));
#269=DIRECTION('',(-1.,0.,0.));
#270=DIRECTION('',(0.,0.,-1.));
#271=DIRECTION('',(-1.,0.,-3.64244732400618E-18));
#272=DIRECTION('',(0.,0.,1.));
#273=DIRECTION('',(-1.,0.,0.));
#274=DIRECTION('',(0.,0.,-1.));
#275=DIRECTION('',(-1.,0.,-4.31170214499158E-15));
#276=DIRECTION('',(0.,0.,-1.));
#277=DIRECTION('',(-1.,0.,0.));
#278=CARTESIAN_POINT('',(0.,0.,0.));
#279=CARTESIAN_POINT('',(0.,0.,45.237));
#280=CARTESIAN_POINT('',(0.,0.,0.));
#281=CARTESIAN_POINT('',(0.,0.,-81.763));
#282=CARTESIAN_POINT('',(0.,0.,45.237));
#283=CARTESIAN_POINT('',(-5.7404,0.,45.237));
#284=CARTESIAN_POINT('',(5.7404,0.,45.237));
#285=CARTESIAN_POINT('',(0.,0.,44.6274));
#286=CARTESIAN_POINT('',(-6.35,0.,44.6274));
#287=CARTESIAN_POINT('',(0.,0.,44.6274));
#288=CARTESIAN_POINT('',(0.,0.,0.));
#289=CARTESIAN_POINT('',(6.35,0.,0.));
#290=CARTESIAN_POINT('',(0.,0.,0.));
#291=CARTESIAN_POINT('',(0.,0.,0.));
#292=CARTESIAN_POINT('',(0.,0.,-5.20378975515723));
#293=CARTESIAN_POINT('',(-6.35000000000001,0.,-5.20378975515723));
#294=CARTESIAN_POINT('',(0.,0.,0.));
#295=CARTESIAN_POINT('',(6.35,0.,0.));
#296=CARTESIAN_POINT('',(0.,0.,0.));
#297=CARTESIAN_POINT('',(0.,0.,-64.4553511569941));
#298=CARTESIAN_POINT('',(-6.09600000000001,0.,-64.4553511569941));
#299=CARTESIAN_POINT('',(0.,0.,-65.888));
#300=CARTESIAN_POINT('',(-6.34861464490272,0.,-65.888));
#301=CARTESIAN_POINT('',(0.,0.,-65.888));
#302=CARTESIAN_POINT('',(0.,0.,-5.563));
#303=CARTESIAN_POINT('',(-6.096,0.,-5.563));
#304=CARTESIAN_POINT('',(0.,0.,0.));
#305=CARTESIAN_POINT('',(0.,0.,-5.563));
#306=CARTESIAN_POINT('',(0.,0.,0.));
#307=CARTESIAN_POINT('',(0.,0.,-65.888));
#308=CARTESIAN_POINT('',(0.,0.,-81.763));
#309=CARTESIAN_POINT('',(-6.35,0.,-81.763));
#310=CARTESIAN_POINT('',(5.32907051820075E-15,0.,-81.2074469866104));
#311=CARTESIAN_POINT('',(0.,0.,-81.2074469866104));
#312=CARTESIAN_POINT('',(0.,0.,-65.888));
#313=CARTESIAN_POINT('',(-6.34861464490272,0.,-65.888));
#314=CARTESIAN_POINT('',(0.,0.,-81.763));
#315=CARTESIAN_POINT('',(0.,0.,-65.888));
#316=MECHANICAL_DESIGN_GEOMETRIC_PRESENTATION_REPRESENTATION('',(#176,#177,
#178,#179,#180,#181),#317);
#317=(
GEOMETRIC_REPRESENTATION_CONTEXT(3)
GLOBAL_UNCERTAINTY_ASSIGNED_CONTEXT((#318))
GLOBAL_UNIT_ASSIGNED_CONTEXT((#324,#320,#319))
REPRESENTATION_CONTEXT('AN345.500E4S','TOP_LEVEL_ASSEMBLY_PART')
);
#318=UNCERTAINTY_MEASURE_WITH_UNIT(LENGTH_MEASURE(2.E-5),#324,
'DISTANCE_ACCURACY_VALUE','Maximum Tolerance applied to model');
#319=(
NAMED_UNIT(*)
SI_UNIT($,.STERADIAN.)
SOLID_ANGLE_UNIT()
);
#320=(
CONVERSION_BASED_UNIT('DEGREE',#322)
NAMED_UNIT(#321)
PLANE_ANGLE_UNIT()
);
#321=DIMENSIONAL_EXPONENTS(0.,0.,0.,0.,0.,0.,0.);
#322=PLANE_ANGLE_MEASURE_WITH_UNIT(PLANE_ANGLE_MEASURE(0.0174532925),#323);
#323=(
NAMED_UNIT(*)
PLANE_ANGLE_UNIT()
SI_UNIT($,.RADIAN.)
);
#324=(
LENGTH_UNIT()
NAMED_UNIT(*)
SI_UNIT(.MILLI.,.METRE.)
);
ENDSEC;
END-ISO-10303-21;
