ISO-10303-21;
HEADER;
/* Generated by software containing ST-Developer
 * from STEP Tools, Inc. (www.steptools.com) 
 */
/* OPTION: using custom schema-name function */

FILE_DESCRIPTION(
/* description */ (''),
/* implementation_level */ '2;1');

FILE_NAME(
/* name */ 'A345R.750D3R190.0Z3_ANF.stp',
/* time_stamp */ '2020-08-27T09:47:31+05:00',
/* author */ (''),
/* organization */ (''),
/* preprocessor_version */ 'ST-DEVELOPER v16.7',
/* originating_system */ 'SIEMENS PLM Software NX 12.0',
/* authorisation */ '');

FILE_SCHEMA (('AUTOMOTIVE_DESIGN { 1 0 10303 214 3 1 1 1 }'));
ENDSEC;

DATA;
#10=CONSTRUCTIVE_GEOMETRY_REPRESENTATION_RELATIONSHIP(
'supplemental geometry','',#32,#11);
#11=CONSTRUCTIVE_GEOMETRY_REPRESENTATION('supplemental geometry',(#176,
#177,#178),#301);
#12=PROPERTY_DEFINITION_REPRESENTATION(#16,#14);
#13=PROPERTY_DEFINITION_REPRESENTATION(#17,#15);
#14=REPRESENTATION('',(#18),#301);
#15=REPRESENTATION('',(#19),#301);
#16=PROPERTY_DEFINITION('pmi validation property','',#23);
#17=PROPERTY_DEFINITION('pmi validation property','',#23);
#18=VALUE_REPRESENTATION_ITEM('number of annotations',COUNT_MEASURE(0.));
#19=VALUE_REPRESENTATION_ITEM('number of views',COUNT_MEASURE(0.));
#20=SHAPE_REPRESENTATION_RELATIONSHIP('None',
'relationship between INPUDA9C52B1phdf-None and INPUDA9C52B1phdf-None',
#32,#21);
#21=ADVANCED_BREP_SHAPE_REPRESENTATION('INPUDA9C52B1phdf-None',(#50,#51,
#52),#301);
#22=SHAPE_DEFINITION_REPRESENTATION(#23,#32);
#23=PRODUCT_DEFINITION_SHAPE('','',#24);
#24=PRODUCT_DEFINITION(' ','',#26,#25);
#25=PRODUCT_DEFINITION_CONTEXT('part definition',#31,'design');
#26=PRODUCT_DEFINITION_FORMATION_WITH_SPECIFIED_SOURCE(' ',' ',#28,
 .NOT_KNOWN.);
#27=PRODUCT_RELATED_PRODUCT_CATEGORY('part','',(#28));
#28=PRODUCT('INPUDA9C52B1phdf','INPUDA9C52B1phdf',' ',(#29));
#29=PRODUCT_CONTEXT(' ',#31,'mechanical');
#30=APPLICATION_PROTOCOL_DEFINITION('international standard',
'automotive_design',2010,#31);
#31=APPLICATION_CONTEXT(
'core data for automotive mechanical design processes');
#32=SHAPE_REPRESENTATION('INPUDA9C52B1phdf-None',(#175),#301);
#33=(
BOUNDED_SURFACE()
B_SPLINE_SURFACE(3,3,((#268,#269,#270,#271,#272,#273,#274),(#275,#276,#277,
#278,#279,#280,#281),(#282,#283,#284,#285,#286,#287,#288),(#289,#290,#291,
#292,#293,#294,#295)),.UNSPECIFIED.,.F.,.T.,.F.)
B_SPLINE_SURFACE_WITH_KNOTS((4,4),(1,3,3,3,1),(0.,1.),(-0.5,0.,0.5,1.,1.5),
 .UNSPECIFIED.)
GEOMETRIC_REPRESENTATION_ITEM()
RATIONAL_B_SPLINE_SURFACE(((1.,0.333333333333333,0.333333333333333,1.,0.333333333333333,
0.333333333333333,1.),(0.783683910305431,0.26122797010181,0.26122797010181,
0.783683910305431,0.26122797010181,0.26122797010181,0.783683910305431),
(0.783683910305431,0.26122797010181,0.26122797010181,0.783683910305431,
0.26122797010181,0.26122797010181,0.783683910305431),(1.,0.333333333333333,
0.333333333333333,1.,0.333333333333333,0.333333333333333,1.)))
REPRESENTATION_ITEM('')
SURFACE()
);
#34=VERTEX_LOOP('',#132);
#35=SURFACE_STYLE_USAGE(.BOTH.,#38);
#36=SURFACE_STYLE_USAGE(.BOTH.,#39);
#37=SURFACE_STYLE_USAGE(.BOTH.,#40);
#38=SURFACE_SIDE_STYLE('',(#41));
#39=SURFACE_SIDE_STYLE('',(#42));
#40=SURFACE_SIDE_STYLE('',(#43));
#41=SURFACE_STYLE_FILL_AREA(#44);
#42=SURFACE_STYLE_FILL_AREA(#45);
#43=SURFACE_STYLE_FILL_AREA(#46);
#44=FILL_AREA_STYLE('',(#47));
#45=FILL_AREA_STYLE('',(#48));
#46=FILL_AREA_STYLE('',(#49));
#47=FILL_AREA_STYLE_COLOUR('',#170);
#48=FILL_AREA_STYLE_COLOUR('',#170);
#49=FILL_AREA_STYLE_COLOUR('',#171);
#50=MANIFOLD_SOLID_BREP('NOCUT',#53);
#51=MANIFOLD_SOLID_BREP('NOCUT',#54);
#52=MANIFOLD_SOLID_BREP('CUT',#55);
#53=CLOSED_SHELL('',(#73,#74,#75,#76));
#54=CLOSED_SHELL('',(#77,#78,#79));
#55=CLOSED_SHELL('',(#80,#81,#82,#83));
#56=CYLINDRICAL_SURFACE('',#184,9.525);
#57=CYLINDRICAL_SURFACE('',#188,9.525);
#58=CONICAL_SURFACE('',#182,9.525,45.0000000000003);
#59=CONICAL_SURFACE('',#192,4.44089209850063E-15,84.9999999999997);
#60=CONICAL_SURFACE('',#195,9.52499992649584,0.0100000000000174);
#61=FACE_BOUND('',#95,.T.);
#62=FACE_BOUND('',#96,.T.);
#63=FACE_BOUND('',#97,.T.);
#64=FACE_BOUND('',#98,.T.);
#65=FACE_BOUND('',#100,.T.);
#66=FACE_BOUND('',#101,.T.);
#67=FACE_BOUND('',#104,.T.);
#68=FACE_BOUND('',#34,.T.);
#69=FACE_BOUND('',#105,.T.);
#70=FACE_BOUND('',#106,.T.);
#71=FACE_BOUND('',#107,.T.);
#72=FACE_BOUND('',#108,.T.);
#73=ADVANCED_FACE('',(#89),#84,.T.);
#74=ADVANCED_FACE('',(#61,#62),#58,.T.);
#75=ADVANCED_FACE('',(#63,#64),#56,.T.);
#76=ADVANCED_FACE('',(#90),#85,.F.);
#77=ADVANCED_FACE('',(#65,#66),#57,.T.);
#78=ADVANCED_FACE('',(#91),#86,.T.);
#79=ADVANCED_FACE('',(#92),#87,.T.);
#80=ADVANCED_FACE('',(#67,#68),#59,.F.);
#81=ADVANCED_FACE('',(#69,#70),#33,.T.);
#82=ADVANCED_FACE('',(#71,#72),#60,.T.);
#83=ADVANCED_FACE('',(#93),#88,.F.);
#84=PLANE('',#180);
#85=PLANE('',#185);
#86=PLANE('',#189);
#87=PLANE('',#190);
#88=PLANE('',#196);
#89=FACE_OUTER_BOUND('',#94,.T.);
#90=FACE_OUTER_BOUND('',#99,.T.);
#91=FACE_OUTER_BOUND('',#102,.T.);
#92=FACE_OUTER_BOUND('',#103,.T.);
#93=FACE_OUTER_BOUND('',#109,.T.);
#94=EDGE_LOOP('',(#110));
#95=EDGE_LOOP('',(#111));
#96=EDGE_LOOP('',(#112));
#97=EDGE_LOOP('',(#113));
#98=EDGE_LOOP('',(#114));
#99=EDGE_LOOP('',(#115));
#100=EDGE_LOOP('',(#116));
#101=EDGE_LOOP('',(#117));
#102=EDGE_LOOP('',(#118));
#103=EDGE_LOOP('',(#119));
#104=EDGE_LOOP('',(#120));
#105=EDGE_LOOP('',(#121));
#106=EDGE_LOOP('',(#122));
#107=EDGE_LOOP('',(#123));
#108=EDGE_LOOP('',(#124));
#109=EDGE_LOOP('',(#125));
#110=ORIENTED_EDGE('',*,*,#135,.F.);
#111=ORIENTED_EDGE('',*,*,#135,.T.);
#112=ORIENTED_EDGE('',*,*,#136,.F.);
#113=ORIENTED_EDGE('',*,*,#137,.T.);
#114=ORIENTED_EDGE('',*,*,#136,.T.);
#115=ORIENTED_EDGE('',*,*,#137,.F.);
#116=ORIENTED_EDGE('',*,*,#138,.F.);
#117=ORIENTED_EDGE('',*,*,#139,.T.);
#118=ORIENTED_EDGE('',*,*,#138,.T.);
#119=ORIENTED_EDGE('',*,*,#139,.F.);
#120=ORIENTED_EDGE('',*,*,#140,.T.);
#121=ORIENTED_EDGE('',*,*,#141,.T.);
#122=ORIENTED_EDGE('',*,*,#140,.F.);
#123=ORIENTED_EDGE('',*,*,#142,.T.);
#124=ORIENTED_EDGE('',*,*,#141,.F.);
#125=ORIENTED_EDGE('',*,*,#142,.F.);
#126=VERTEX_POINT('',#246);
#127=VERTEX_POINT('',#249);
#128=VERTEX_POINT('',#252);
#129=VERTEX_POINT('',#256);
#130=VERTEX_POINT('',#258);
#131=VERTEX_POINT('',#263);
#132=VERTEX_POINT('',#264);
#133=VERTEX_POINT('',#267);
#134=VERTEX_POINT('',#297);
#135=EDGE_CURVE('',#126,#126,#143,.T.);
#136=EDGE_CURVE('',#127,#127,#144,.T.);
#137=EDGE_CURVE('',#128,#128,#145,.T.);
#138=EDGE_CURVE('',#129,#129,#146,.T.);
#139=EDGE_CURVE('',#130,#130,#147,.T.);
#140=EDGE_CURVE('',#131,#131,#148,.T.);
#141=EDGE_CURVE('',#133,#133,#149,.T.);
#142=EDGE_CURVE('',#134,#134,#150,.T.);
#143=CIRCLE('',#179,8.91539999999999);
#144=CIRCLE('',#181,9.525);
#145=CIRCLE('',#183,9.525);
#146=CIRCLE('',#186,9.52500000000001);
#147=CIRCLE('',#187,9.525);
#148=CIRCLE('',#191,4.27838638549981);
#149=CIRCLE('',#193,9.52499992649584);
#150=CIRCLE('',#194,9.51586781263333);
#151=PRESENTATION_LAYER_ASSIGNMENT('1','Layer 1',(#176,#177,#178,#50));
#152=PRESENTATION_LAYER_ASSIGNMENT('2','Layer 2',(#51));
#153=PRESENTATION_LAYER_ASSIGNMENT('3','Layer 3',(#52));
#154=STYLED_ITEM('',(#160),#176);
#155=STYLED_ITEM('',(#161),#177);
#156=STYLED_ITEM('',(#162),#178);
#157=STYLED_ITEM('',(#163),#50);
#158=STYLED_ITEM('',(#164),#51);
#159=STYLED_ITEM('',(#165),#52);
#160=PRESENTATION_STYLE_ASSIGNMENT((#166));
#161=PRESENTATION_STYLE_ASSIGNMENT((#167));
#162=PRESENTATION_STYLE_ASSIGNMENT((#168));
#163=PRESENTATION_STYLE_ASSIGNMENT((#35));
#164=PRESENTATION_STYLE_ASSIGNMENT((#36));
#165=PRESENTATION_STYLE_ASSIGNMENT((#37));
#166=CURVE_STYLE('',#172,POSITIVE_LENGTH_MEASURE(0.18),#169);
#167=CURVE_STYLE('',#173,POSITIVE_LENGTH_MEASURE(0.18),#169);
#168=CURVE_STYLE('',#174,POSITIVE_LENGTH_MEASURE(0.18),#169);
#169=COLOUR_RGB('Pale Maroon',0.811749446860456,0.603921568627451,0.611749446860456);
#170=COLOUR_RGB('Medium Gray',0.490196078431373,0.490196078431373,0.490196078431373);
#171=COLOUR_RGB('Light Gray',0.8,0.8,0.8);
#172=DRAUGHTING_PRE_DEFINED_CURVE_FONT('continuous');
#173=DRAUGHTING_PRE_DEFINED_CURVE_FONT('continuous');
#174=DRAUGHTING_PRE_DEFINED_CURVE_FONT('continuous');
#175=AXIS2_PLACEMENT_3D('',#241,#197,#198);
#176=AXIS2_PLACEMENT_3D('PCS',#242,#199,#200);
#177=AXIS2_PLACEMENT_3D('MCS',#243,#201,#202);
#178=AXIS2_PLACEMENT_3D('CIP',#244,#203,#204);
#179=AXIS2_PLACEMENT_3D('',#245,#205,#206);
#180=AXIS2_PLACEMENT_3D('',#247,#207,#208);
#181=AXIS2_PLACEMENT_3D('',#248,#209,#210);
#182=AXIS2_PLACEMENT_3D('',#250,#211,#212);
#183=AXIS2_PLACEMENT_3D('',#251,#213,#214);
#184=AXIS2_PLACEMENT_3D('',#253,#215,#216);
#185=AXIS2_PLACEMENT_3D('',#254,#217,#218);
#186=AXIS2_PLACEMENT_3D('',#255,#219,#220);
#187=AXIS2_PLACEMENT_3D('',#257,#221,#222);
#188=AXIS2_PLACEMENT_3D('',#259,#223,#224);
#189=AXIS2_PLACEMENT_3D('',#260,#225,#226);
#190=AXIS2_PLACEMENT_3D('',#261,#227,#228);
#191=AXIS2_PLACEMENT_3D('',#262,#229,#230);
#192=AXIS2_PLACEMENT_3D('',#265,#231,#232);
#193=AXIS2_PLACEMENT_3D('',#266,#233,#234);
#194=AXIS2_PLACEMENT_3D('',#296,#235,#236);
#195=AXIS2_PLACEMENT_3D('',#298,#237,#238);
#196=AXIS2_PLACEMENT_3D('',#299,#239,#240);
#197=DIRECTION('',(0.,0.,1.));
#198=DIRECTION('',(1.,0.,0.));
#199=DIRECTION('',(0.,0.,1.));
#200=DIRECTION('',(1.,0.,0.));
#201=DIRECTION('',(0.,0.,1.));
#202=DIRECTION('',(1.,0.,0.));
#203=DIRECTION('',(0.,0.,1.));
#204=DIRECTION('',(1.,0.,0.));
#205=DIRECTION('',(0.,0.,-1.));
#206=DIRECTION('',(-1.,0.,0.));
#207=DIRECTION('',(0.,0.,1.));
#208=DIRECTION('',(1.,0.,0.));
#209=DIRECTION('',(0.,0.,-1.));
#210=DIRECTION('',(-1.,0.,0.));
#211=DIRECTION('',(0.,0.,-1.));
#212=DIRECTION('',(-1.,0.,5.49873962816742E-17));
#213=DIRECTION('',(0.,0.,1.));
#214=DIRECTION('',(1.,0.,0.));
#215=DIRECTION('',(0.,0.,-1.));
#216=DIRECTION('',(-1.,0.,0.));
#217=DIRECTION('',(0.,0.,1.));
#218=DIRECTION('',(1.,0.,0.));
#219=DIRECTION('',(0.,0.,-1.));
#220=DIRECTION('',(-1.,0.,0.));
#221=DIRECTION('',(0.,0.,-1.));
#222=DIRECTION('',(1.,0.,0.));
#223=DIRECTION('',(0.,0.,-1.));
#224=DIRECTION('',(-1.,0.,0.));
#225=DIRECTION('',(0.,0.,-1.));
#226=DIRECTION('',(-1.,0.,0.));
#227=DIRECTION('',(0.,0.,1.));
#228=DIRECTION('',(1.,0.,0.));
#229=DIRECTION('',(0.,0.,-1.));
#230=DIRECTION('',(-1.,0.,0.));
#231=DIRECTION('',(0.,0.,-1.));
#232=DIRECTION('',(-1.,0.,-6.07074554001068E-18));
#233=DIRECTION('',(0.,0.,-1.));
#234=DIRECTION('',(-1.,0.,0.));
#235=DIRECTION('',(0.,0.,-1.));
#236=DIRECTION('',(-1.,0.,0.));
#237=DIRECTION('',(0.,0.,-1.));
#238=DIRECTION('',(-1.,0.,-1.0015380753102E-14));
#239=DIRECTION('',(0.,0.,-1.));
#240=DIRECTION('',(-1.,0.,0.));
#241=CARTESIAN_POINT('',(0.,0.,0.));
#242=CARTESIAN_POINT('',(0.,0.,51.587));
#243=CARTESIAN_POINT('',(0.,0.,0.));
#244=CARTESIAN_POINT('',(0.,0.,-75.413));
#245=CARTESIAN_POINT('',(0.,0.,51.587));
#246=CARTESIAN_POINT('',(-8.91539999999999,0.,51.587));
#247=CARTESIAN_POINT('',(8.91539999999999,0.,51.587));
#248=CARTESIAN_POINT('',(0.,0.,50.9774));
#249=CARTESIAN_POINT('',(-9.525,0.,50.9774));
#250=CARTESIAN_POINT('',(0.,0.,50.9774));
#251=CARTESIAN_POINT('',(0.,0.,0.));
#252=CARTESIAN_POINT('',(9.525,0.,0.));
#253=CARTESIAN_POINT('',(0.,0.,0.));
#254=CARTESIAN_POINT('',(0.,0.,0.));
#255=CARTESIAN_POINT('',(0.,0.,-18.263));
#256=CARTESIAN_POINT('',(-9.52500000000001,0.,-18.263));
#257=CARTESIAN_POINT('',(0.,0.,0.));
#258=CARTESIAN_POINT('',(9.525,0.,0.));
#259=CARTESIAN_POINT('',(0.,0.,0.));
#260=CARTESIAN_POINT('',(9.51586781263333,0.,-18.263));
#261=CARTESIAN_POINT('',(0.,0.,0.));
#262=CARTESIAN_POINT('',(0.,0.,-75.3946356129908));
#263=CARTESIAN_POINT('',(-4.27838638549981,0.,-75.3946356129908));
#264=CARTESIAN_POINT('',(4.44089209850063E-15,0.,-75.0203253060759));
#265=CARTESIAN_POINT('',(0.,0.,-75.0203253060759));
#266=CARTESIAN_POINT('',(0.,0.,-70.5861577041073));
#267=CARTESIAN_POINT('',(-9.52499992649584,0.,-70.5861577041073));
#268=CARTESIAN_POINT('',(-4.2783863854998,0.,-75.3946356129908));
#269=CARTESIAN_POINT('',(-4.2783863854998,8.55677277099961,-75.3946356129908));
#270=CARTESIAN_POINT('',(4.2783863854998,8.55677277099961,-75.3946356129908));
#271=CARTESIAN_POINT('',(4.2783863854998,0.,-75.3946356129908));
#272=CARTESIAN_POINT('',(4.2783863854998,-8.55677277099961,-75.3946356129908));
#273=CARTESIAN_POINT('',(-4.2783863854998,-8.55677277099961,-75.3946356129908));
#274=CARTESIAN_POINT('',(-4.2783863854998,0.,-75.3946356129908));
#275=CARTESIAN_POINT('',(-7.29392548378512,0.,-75.6584610985099));
#276=CARTESIAN_POINT('',(-7.29392548378512,14.5878509675702,-75.6584610985099));
#277=CARTESIAN_POINT('',(7.29392548378512,14.5878509675702,-75.6584610985099));
#278=CARTESIAN_POINT('',(7.29392548378512,0.,-75.6584610985099));
#279=CARTESIAN_POINT('',(7.29392548378512,-14.5878509675702,-75.6584610985099));
#280=CARTESIAN_POINT('',(-7.29392548378512,-14.5878509675702,-75.6584610985099));
#281=CARTESIAN_POINT('',(-7.29392548378512,0.,-75.6584610985099));
#282=CARTESIAN_POINT('',(-9.52552824777502,0.,-73.6132156257489));
#283=CARTESIAN_POINT('',(-9.52552824777502,19.05105649555,-73.6132156257489));
#284=CARTESIAN_POINT('',(9.52552824777502,19.05105649555,-73.6132156257489));
#285=CARTESIAN_POINT('',(9.52552824777502,0.,-73.6132156257489));
#286=CARTESIAN_POINT('',(9.52552824777502,-19.05105649555,-73.6132156257489));
#287=CARTESIAN_POINT('',(-9.52552824777502,-19.05105649555,-73.6132156257489));
#288=CARTESIAN_POINT('',(-9.52552824777502,0.,-73.6132156257489));
#289=CARTESIAN_POINT('',(-9.52499992649584,0.,-70.5861577041073));
#290=CARTESIAN_POINT('',(-9.52499992649584,19.0499998529917,-70.5861577041073));
#291=CARTESIAN_POINT('',(9.52499992649584,19.0499998529917,-70.5861577041073));
#292=CARTESIAN_POINT('',(9.52499992649584,0.,-70.5861577041073));
#293=CARTESIAN_POINT('',(9.52499992649584,-19.0499998529917,-70.5861577041073));
#294=CARTESIAN_POINT('',(-9.52499992649584,-19.0499998529917,-70.5861577041073));
#295=CARTESIAN_POINT('',(-9.52499992649584,0.,-70.5861577041073));
#296=CARTESIAN_POINT('',(0.,0.,-18.263));
#297=CARTESIAN_POINT('',(-9.51586781263333,0.,-18.263));
#298=CARTESIAN_POINT('',(0.,0.,-70.5861577041073));
#299=CARTESIAN_POINT('',(0.,0.,-18.263));
#300=MECHANICAL_DESIGN_GEOMETRIC_PRESENTATION_REPRESENTATION('',(#154,#155,
#156,#157,#158,#159),#301);
#301=(
GEOMETRIC_REPRESENTATION_CONTEXT(3)
GLOBAL_UNCERTAINTY_ASSIGNED_CONTEXT((#302))
GLOBAL_UNIT_ASSIGNED_CONTEXT((#308,#304,#303))
REPRESENTATION_CONTEXT('A345R.750D3R190','TOP_LEVEL_ASSEMBLY_PART')
);
#302=UNCERTAINTY_MEASURE_WITH_UNIT(LENGTH_MEASURE(0.0254),#308,
'DISTANCE_ACCURACY_VALUE','Maximum Tolerance applied to model');
#303=(
NAMED_UNIT(*)
SI_UNIT($,.STERADIAN.)
SOLID_ANGLE_UNIT()
);
#304=(
CONVERSION_BASED_UNIT('DEGREE',#306)
NAMED_UNIT(#305)
PLANE_ANGLE_UNIT()
);
#305=DIMENSIONAL_EXPONENTS(0.,0.,0.,0.,0.,0.,0.);
#306=PLANE_ANGLE_MEASURE_WITH_UNIT(PLANE_ANGLE_MEASURE(0.0174532925),#307);
#307=(
NAMED_UNIT(*)
PLANE_ANGLE_UNIT()
SI_UNIT($,.RADIAN.)
);
#308=(
LENGTH_UNIT()
NAMED_UNIT(*)
SI_UNIT(.MILLI.,.METRE.)
);
ENDSEC;
END-ISO-10303-21;
