ISO-10303-21;
HEADER;
/* Generated by software containing ST-Developer
 * from STEP Tools, Inc. (www.steptools.com) 
 */
/* OPTION: using custom schema-name function */

FILE_DESCRIPTION(
/* description */ (''),
/* implementation_level */ '2;1');

FILE_NAME(
/* name */ 'A345R.156F3R010.0Z3_ANF.stp',
/* time_stamp */ '2020-08-27T10:27:30+06:00',
/* author */ (''),
/* organization */ (''),
/* preprocessor_version */ 'ST-DEVELOPER v16.7',
/* originating_system */ 'SIEMENS PLM Software NX 12.0',
/* authorisation */ '');

FILE_SCHEMA (('AUTOMOTIVE_DESIGN { 1 0 10303 214 3 1 1 1 }'));
ENDSEC;

DATA;
#10=CONSTRUCTIVE_GEOMETRY_REPRESENTATION_RELATIONSHIP(
'supplemental geometry','',#32,#11);
#11=CONSTRUCTIVE_GEOMETRY_REPRESENTATION('supplemental geometry',(#187,
#188,#189),#297);
#12=PROPERTY_DEFINITION_REPRESENTATION(#16,#14);
#13=PROPERTY_DEFINITION_REPRESENTATION(#17,#15);
#14=REPRESENTATION('',(#18),#297);
#15=REPRESENTATION('',(#19),#297);
#16=PROPERTY_DEFINITION('pmi validation property','',#23);
#17=PROPERTY_DEFINITION('pmi validation property','',#23);
#18=VALUE_REPRESENTATION_ITEM('number of annotations',COUNT_MEASURE(0.));
#19=VALUE_REPRESENTATION_ITEM('number of views',COUNT_MEASURE(0.));
#20=SHAPE_REPRESENTATION_RELATIONSHIP('None',
'relationship between INPUA7A4A906phxz-None and INPUA7A4A906phxz-None',
#32,#21);
#21=ADVANCED_BREP_SHAPE_REPRESENTATION('INPUA7A4A906phxz-None',(#50,#51,
#52),#297);
#22=SHAPE_DEFINITION_REPRESENTATION(#23,#32);
#23=PRODUCT_DEFINITION_SHAPE('','',#24);
#24=PRODUCT_DEFINITION(' ','',#26,#25);
#25=PRODUCT_DEFINITION_CONTEXT('part definition',#31,'design');
#26=PRODUCT_DEFINITION_FORMATION_WITH_SPECIFIED_SOURCE(' ',' ',#28,
 .NOT_KNOWN.);
#27=PRODUCT_RELATED_PRODUCT_CATEGORY('part','',(#28));
#28=PRODUCT('INPUA7A4A906phxz','INPUA7A4A906phxz',' ',(#29));
#29=PRODUCT_CONTEXT(' ',#31,'mechanical');
#30=APPLICATION_PROTOCOL_DEFINITION('international standard',
'automotive_design',2010,#31);
#31=APPLICATION_CONTEXT(
'core data for automotive mechanical design processes');
#32=SHAPE_REPRESENTATION('INPUA7A4A906phxz-None',(#186),#297);
#33=TOROIDAL_SURFACE('',#207,1.730375,0.253999999999993);
#34=VERTEX_LOOP('',#141);
#35=SURFACE_STYLE_USAGE(.BOTH.,#38);
#36=SURFACE_STYLE_USAGE(.BOTH.,#39);
#37=SURFACE_STYLE_USAGE(.BOTH.,#40);
#38=SURFACE_SIDE_STYLE('',(#41));
#39=SURFACE_SIDE_STYLE('',(#42));
#40=SURFACE_SIDE_STYLE('',(#43));
#41=SURFACE_STYLE_FILL_AREA(#44);
#42=SURFACE_STYLE_FILL_AREA(#45);
#43=SURFACE_STYLE_FILL_AREA(#46);
#44=FILL_AREA_STYLE('',(#47));
#45=FILL_AREA_STYLE('',(#48));
#46=FILL_AREA_STYLE('',(#49));
#47=FILL_AREA_STYLE_COLOUR('',#181);
#48=FILL_AREA_STYLE_COLOUR('',#181);
#49=FILL_AREA_STYLE_COLOUR('',#182);
#50=MANIFOLD_SOLID_BREP('NOCUT',#53);
#51=MANIFOLD_SOLID_BREP('NOCUT',#54);
#52=MANIFOLD_SOLID_BREP('CUT',#55);
#53=CLOSED_SHELL('',(#76,#77,#78,#79));
#54=CLOSED_SHELL('',(#80,#81,#82,#83));
#55=CLOSED_SHELL('',(#84,#85,#86,#87));
#56=CYLINDRICAL_SURFACE('',#195,2.38125);
#57=CYLINDRICAL_SURFACE('',#199,2.38125);
#58=CONICAL_SURFACE('',#193,2.38125,44.9999999999998);
#59=CONICAL_SURFACE('',#202,1.984375,9.99999999999999);
#60=CONICAL_SURFACE('',#205,2.22044604925031E-15,85.0000000000001);
#61=CONICAL_SURFACE('',#209,1.98437499903283,0.0049999999999697);
#62=FACE_BOUND('',#99,.T.);
#63=FACE_BOUND('',#100,.T.);
#64=FACE_BOUND('',#101,.T.);
#65=FACE_BOUND('',#102,.T.);
#66=FACE_BOUND('',#104,.T.);
#67=FACE_BOUND('',#105,.T.);
#68=FACE_BOUND('',#107,.T.);
#69=FACE_BOUND('',#108,.T.);
#70=FACE_BOUND('',#110,.T.);
#71=FACE_BOUND('',#34,.T.);
#72=FACE_BOUND('',#111,.T.);
#73=FACE_BOUND('',#112,.T.);
#74=FACE_BOUND('',#113,.T.);
#75=FACE_BOUND('',#114,.T.);
#76=ADVANCED_FACE('',(#93),#88,.T.);
#77=ADVANCED_FACE('',(#62,#63),#58,.T.);
#78=ADVANCED_FACE('',(#64,#65),#56,.T.);
#79=ADVANCED_FACE('',(#94),#89,.F.);
#80=ADVANCED_FACE('',(#66,#67),#57,.T.);
#81=ADVANCED_FACE('',(#95),#90,.T.);
#82=ADVANCED_FACE('',(#68,#69),#59,.T.);
#83=ADVANCED_FACE('',(#96),#91,.T.);
#84=ADVANCED_FACE('',(#70,#71),#60,.F.);
#85=ADVANCED_FACE('',(#72,#73),#33,.T.);
#86=ADVANCED_FACE('',(#74,#75),#61,.T.);
#87=ADVANCED_FACE('',(#97),#92,.F.);
#88=PLANE('',#191);
#89=PLANE('',#196);
#90=PLANE('',#201);
#91=PLANE('',#203);
#92=PLANE('',#210);
#93=FACE_OUTER_BOUND('',#98,.T.);
#94=FACE_OUTER_BOUND('',#103,.T.);
#95=FACE_OUTER_BOUND('',#106,.T.);
#96=FACE_OUTER_BOUND('',#109,.T.);
#97=FACE_OUTER_BOUND('',#115,.T.);
#98=EDGE_LOOP('',(#116));
#99=EDGE_LOOP('',(#117));
#100=EDGE_LOOP('',(#118));
#101=EDGE_LOOP('',(#119));
#102=EDGE_LOOP('',(#120));
#103=EDGE_LOOP('',(#121));
#104=EDGE_LOOP('',(#122));
#105=EDGE_LOOP('',(#123));
#106=EDGE_LOOP('',(#124));
#107=EDGE_LOOP('',(#125));
#108=EDGE_LOOP('',(#126));
#109=EDGE_LOOP('',(#127));
#110=EDGE_LOOP('',(#128));
#111=EDGE_LOOP('',(#129));
#112=EDGE_LOOP('',(#130));
#113=EDGE_LOOP('',(#131));
#114=EDGE_LOOP('',(#132));
#115=EDGE_LOOP('',(#133));
#116=ORIENTED_EDGE('',*,*,#144,.F.);
#117=ORIENTED_EDGE('',*,*,#144,.T.);
#118=ORIENTED_EDGE('',*,*,#145,.F.);
#119=ORIENTED_EDGE('',*,*,#146,.T.);
#120=ORIENTED_EDGE('',*,*,#145,.T.);
#121=ORIENTED_EDGE('',*,*,#146,.F.);
#122=ORIENTED_EDGE('',*,*,#147,.F.);
#123=ORIENTED_EDGE('',*,*,#148,.T.);
#124=ORIENTED_EDGE('',*,*,#149,.T.);
#125=ORIENTED_EDGE('',*,*,#147,.T.);
#126=ORIENTED_EDGE('',*,*,#149,.F.);
#127=ORIENTED_EDGE('',*,*,#148,.F.);
#128=ORIENTED_EDGE('',*,*,#150,.T.);
#129=ORIENTED_EDGE('',*,*,#151,.T.);
#130=ORIENTED_EDGE('',*,*,#150,.F.);
#131=ORIENTED_EDGE('',*,*,#152,.T.);
#132=ORIENTED_EDGE('',*,*,#151,.F.);
#133=ORIENTED_EDGE('',*,*,#152,.F.);
#134=VERTEX_POINT('',#266);
#135=VERTEX_POINT('',#269);
#136=VERTEX_POINT('',#272);
#137=VERTEX_POINT('',#276);
#138=VERTEX_POINT('',#278);
#139=VERTEX_POINT('',#281);
#140=VERTEX_POINT('',#286);
#141=VERTEX_POINT('',#287);
#142=VERTEX_POINT('',#290);
#143=VERTEX_POINT('',#293);
#144=EDGE_CURVE('',#134,#134,#153,.T.);
#145=EDGE_CURVE('',#135,#135,#154,.T.);
#146=EDGE_CURVE('',#136,#136,#155,.T.);
#147=EDGE_CURVE('',#137,#137,#156,.T.);
#148=EDGE_CURVE('',#138,#138,#157,.T.);
#149=EDGE_CURVE('',#139,#139,#158,.T.);
#150=EDGE_CURVE('',#140,#140,#159,.T.);
#151=EDGE_CURVE('',#142,#142,#160,.T.);
#152=EDGE_CURVE('',#143,#143,#161,.T.);
#153=CIRCLE('',#190,2.07645);
#154=CIRCLE('',#192,2.38125);
#155=CIRCLE('',#194,2.38125);
#156=CIRCLE('',#197,2.38125);
#157=CIRCLE('',#198,2.38125);
#158=CIRCLE('',#200,1.984375);
#159=CIRCLE('',#204,1.7082374413421);
#160=CIRCLE('',#206,1.98437499903283);
#161=CIRCLE('',#208,1.98328888257089);
#162=PRESENTATION_LAYER_ASSIGNMENT('1','Layer 1',(#187,#188,#189,#50));
#163=PRESENTATION_LAYER_ASSIGNMENT('2','Layer 2',(#51));
#164=PRESENTATION_LAYER_ASSIGNMENT('3','Layer 3',(#52));
#165=STYLED_ITEM('',(#171),#187);
#166=STYLED_ITEM('',(#172),#188);
#167=STYLED_ITEM('',(#173),#189);
#168=STYLED_ITEM('',(#174),#50);
#169=STYLED_ITEM('',(#175),#51);
#170=STYLED_ITEM('',(#176),#52);
#171=PRESENTATION_STYLE_ASSIGNMENT((#177));
#172=PRESENTATION_STYLE_ASSIGNMENT((#178));
#173=PRESENTATION_STYLE_ASSIGNMENT((#179));
#174=PRESENTATION_STYLE_ASSIGNMENT((#35));
#175=PRESENTATION_STYLE_ASSIGNMENT((#36));
#176=PRESENTATION_STYLE_ASSIGNMENT((#37));
#177=CURVE_STYLE('',#183,POSITIVE_LENGTH_MEASURE(0.18),#180);
#178=CURVE_STYLE('',#184,POSITIVE_LENGTH_MEASURE(0.18),#180);
#179=CURVE_STYLE('',#185,POSITIVE_LENGTH_MEASURE(0.18),#180);
#180=COLOUR_RGB('Pale Maroon',0.811749446860456,0.603921568627451,0.611749446860456);
#181=COLOUR_RGB('Medium Gray',0.490196078431373,0.490196078431373,0.490196078431373);
#182=COLOUR_RGB('Light Gray',0.8,0.8,0.8);
#183=DRAUGHTING_PRE_DEFINED_CURVE_FONT('continuous');
#184=DRAUGHTING_PRE_DEFINED_CURVE_FONT('continuous');
#185=DRAUGHTING_PRE_DEFINED_CURVE_FONT('continuous');
#186=AXIS2_PLACEMENT_3D('',#261,#211,#212);
#187=AXIS2_PLACEMENT_3D('PCS',#262,#213,#214);
#188=AXIS2_PLACEMENT_3D('MCS',#263,#215,#216);
#189=AXIS2_PLACEMENT_3D('CIP',#264,#217,#218);
#190=AXIS2_PLACEMENT_3D('',#265,#219,#220);
#191=AXIS2_PLACEMENT_3D('',#267,#221,#222);
#192=AXIS2_PLACEMENT_3D('',#268,#223,#224);
#193=AXIS2_PLACEMENT_3D('',#270,#225,#226);
#194=AXIS2_PLACEMENT_3D('',#271,#227,#228);
#195=AXIS2_PLACEMENT_3D('',#273,#229,#230);
#196=AXIS2_PLACEMENT_3D('',#274,#231,#232);
#197=AXIS2_PLACEMENT_3D('',#275,#233,#234);
#198=AXIS2_PLACEMENT_3D('',#277,#235,#236);
#199=AXIS2_PLACEMENT_3D('',#279,#237,#238);
#200=AXIS2_PLACEMENT_3D('',#280,#239,#240);
#201=AXIS2_PLACEMENT_3D('',#282,#241,#242);
#202=AXIS2_PLACEMENT_3D('',#283,#243,#244);
#203=AXIS2_PLACEMENT_3D('',#284,#245,#246);
#204=AXIS2_PLACEMENT_3D('',#285,#247,#248);
#205=AXIS2_PLACEMENT_3D('',#288,#249,#250);
#206=AXIS2_PLACEMENT_3D('',#289,#251,#252);
#207=AXIS2_PLACEMENT_3D('',#291,#253,#254);
#208=AXIS2_PLACEMENT_3D('',#292,#255,#256);
#209=AXIS2_PLACEMENT_3D('',#294,#257,#258);
#210=AXIS2_PLACEMENT_3D('',#295,#259,#260);
#211=DIRECTION('',(0.,0.,1.));
#212=DIRECTION('',(1.,0.,0.));
#213=DIRECTION('',(0.,0.,1.));
#214=DIRECTION('',(1.,0.,0.));
#215=DIRECTION('',(0.,0.,1.));
#216=DIRECTION('',(1.,0.,0.));
#217=DIRECTION('',(0.,0.,1.));
#218=DIRECTION('',(1.,0.,0.));
#219=DIRECTION('',(0.,0.,-1.));
#220=DIRECTION('',(-1.,0.,0.));
#221=DIRECTION('',(0.,0.,1.));
#222=DIRECTION('',(1.,0.,0.));
#223=DIRECTION('',(0.,0.,-1.));
#224=DIRECTION('',(-1.,0.,0.));
#225=DIRECTION('',(0.,0.,-1.));
#226=DIRECTION('',(-1.,0.,3.11508446188342E-17));
#227=DIRECTION('',(0.,0.,1.));
#228=DIRECTION('',(1.,0.,0.));
#229=DIRECTION('',(0.,0.,-1.));
#230=DIRECTION('',(-1.,0.,0.));
#231=DIRECTION('',(0.,0.,1.));
#232=DIRECTION('',(1.,0.,0.));
#233=DIRECTION('',(0.,0.,-1.));
#234=DIRECTION('',(-1.,0.,0.));
#235=DIRECTION('',(0.,0.,-1.));
#236=DIRECTION('',(1.,0.,0.));
#237=DIRECTION('',(0.,0.,-1.));
#238=DIRECTION('',(-1.,0.,0.));
#239=DIRECTION('',(0.,0.,-1.));
#240=DIRECTION('',(-1.,0.,0.));
#241=DIRECTION('',(0.,0.,-1.));
#242=DIRECTION('',(-1.,0.,0.));
#243=DIRECTION('',(0.,0.,1.));
#244=DIRECTION('',(1.,0.,-1.94572406124604E-17));
#245=DIRECTION('',(0.,0.,1.));
#246=DIRECTION('',(1.,0.,0.));
#247=DIRECTION('',(0.,0.,-1.));
#248=DIRECTION('',(-1.,0.,0.));
#249=DIRECTION('',(0.,0.,-1.));
#250=DIRECTION('',(-1.,0.,-4.55305915500758E-18));
#251=DIRECTION('',(0.,0.,-1.));
#252=DIRECTION('',(-1.,0.,0.));
#253=DIRECTION('',(0.,0.,-1.));
#254=DIRECTION('',(-1.,0.,0.));
#255=DIRECTION('',(0.,0.,-1.));
#256=DIRECTION('',(-1.,0.,0.));
#257=DIRECTION('',(0.,0.,-1.));
#258=DIRECTION('',(-1.,0.,3.85188660124308E-14));
#259=DIRECTION('',(0.,0.,-1.));
#260=DIRECTION('',(-1.,0.,0.));
#261=CARTESIAN_POINT('',(0.,0.,0.));
#262=CARTESIAN_POINT('',(0.,0.,28.));
#263=CARTESIAN_POINT('',(0.,0.,0.));
#264=CARTESIAN_POINT('',(0.,0.,-22.8));
#265=CARTESIAN_POINT('',(0.,0.,28.));
#266=CARTESIAN_POINT('',(-2.07645,0.,28.));
#267=CARTESIAN_POINT('',(2.07645,0.,28.));
#268=CARTESIAN_POINT('',(0.,0.,27.6952));
#269=CARTESIAN_POINT('',(-2.38125,0.,27.6952));
#270=CARTESIAN_POINT('',(0.,0.,27.6952));
#271=CARTESIAN_POINT('',(0.,0.,0.));
#272=CARTESIAN_POINT('',(2.38125,0.,0.));
#273=CARTESIAN_POINT('',(0.,0.,0.));
#274=CARTESIAN_POINT('',(0.,0.,0.));
#275=CARTESIAN_POINT('',(0.,0.,-7.84921002783918));
#276=CARTESIAN_POINT('',(-2.38125,0.,-7.84921002783918));
#277=CARTESIAN_POINT('',(0.,0.,0.));
#278=CARTESIAN_POINT('',(2.38125,0.,0.));
#279=CARTESIAN_POINT('',(0.,0.,0.));
#280=CARTESIAN_POINT('',(0.,0.,-10.1));
#281=CARTESIAN_POINT('',(-1.984375,0.,-10.1));
#282=CARTESIAN_POINT('',(1.98328888257089,0.,-10.1));
#283=CARTESIAN_POINT('',(0.,0.,-10.1));
#284=CARTESIAN_POINT('',(0.,0.,0.));
#285=CARTESIAN_POINT('',(0.,0.,-22.7990334533153));
#286=CARTESIAN_POINT('',(-1.7082374413421,0.,-22.7990334533153));
#287=CARTESIAN_POINT('',(-2.22044604925031E-15,0.,-22.6495820425873));
#288=CARTESIAN_POINT('',(0.,0.,-22.6495820425873));
#289=CARTESIAN_POINT('',(0.,0.,-22.5459778343185));
#290=CARTESIAN_POINT('',(-1.98437499903283,0.,-22.5459778343185));
#291=CARTESIAN_POINT('',(0.,0.,-22.546));
#292=CARTESIAN_POINT('',(0.,0.,-10.1));
#293=CARTESIAN_POINT('',(-1.98328888257089,0.,-10.1));
#294=CARTESIAN_POINT('',(0.,0.,-22.5459778343185));
#295=CARTESIAN_POINT('',(0.,0.,-10.1));
#296=MECHANICAL_DESIGN_GEOMETRIC_PRESENTATION_REPRESENTATION('',(#165,#166,
#167,#168,#169,#170),#297);
#297=(
GEOMETRIC_REPRESENTATION_CONTEXT(3)
GLOBAL_UNCERTAINTY_ASSIGNED_CONTEXT((#298))
GLOBAL_UNIT_ASSIGNED_CONTEXT((#304,#300,#299))
REPRESENTATION_CONTEXT('A345R.156F3R010','TOP_LEVEL_ASSEMBLY_PART')
);
#298=UNCERTAINTY_MEASURE_WITH_UNIT(LENGTH_MEASURE(2.E-5),#304,
'DISTANCE_ACCURACY_VALUE','Maximum Tolerance applied to model');
#299=(
NAMED_UNIT(*)
SI_UNIT($,.STERADIAN.)
SOLID_ANGLE_UNIT()
);
#300=(
CONVERSION_BASED_UNIT('DEGREE',#302)
NAMED_UNIT(#301)
PLANE_ANGLE_UNIT()
);
#301=DIMENSIONAL_EXPONENTS(0.,0.,0.,0.,0.,0.,0.);
#302=PLANE_ANGLE_MEASURE_WITH_UNIT(PLANE_ANGLE_MEASURE(0.0174532925),#303);
#303=(
NAMED_UNIT(*)
PLANE_ANGLE_UNIT()
SI_UNIT($,.RADIAN.)
);
#304=(
LENGTH_UNIT()
NAMED_UNIT(*)
SI_UNIT(.MILLI.,.METRE.)
);
ENDSEC;
END-ISO-10303-21;
