ISO-10303-21;
HEADER;
/* Generated by software containing ST-Developer
 * from STEP Tools, Inc. (www.steptools.com) 
 */
/* OPTION: using custom schema-name function */

FILE_DESCRIPTION(
/* description */ (''),
/* implementation_level */ '2;1');

FILE_NAME(
/* name */ 'A345.313D7S.0Z3_ANF.stp',
/* time_stamp */ '2020-08-27T09:13:19+06:00',
/* author */ (''),
/* organization */ (''),
/* preprocessor_version */ 'ST-DEVELOPER v16.7',
/* originating_system */ 'SIEMENS PLM Software NX 12.0',
/* authorisation */ '');

FILE_SCHEMA (('AUTOMOTIVE_DESIGN { 1 0 10303 214 3 1 1 1 }'));
ENDSEC;

DATA;
#10=CONSTRUCTIVE_GEOMETRY_REPRESENTATION_RELATIONSHIP(
'supplemental geometry','',#32,#11);
#11=CONSTRUCTIVE_GEOMETRY_REPRESENTATION('supplemental geometry',(#165,
#166,#167),#257);
#12=PROPERTY_DEFINITION_REPRESENTATION(#16,#14);
#13=PROPERTY_DEFINITION_REPRESENTATION(#17,#15);
#14=REPRESENTATION('',(#18),#257);
#15=REPRESENTATION('',(#19),#257);
#16=PROPERTY_DEFINITION('pmi validation property','',#23);
#17=PROPERTY_DEFINITION('pmi validation property','',#23);
#18=VALUE_REPRESENTATION_ITEM('number of annotations',COUNT_MEASURE(0.));
#19=VALUE_REPRESENTATION_ITEM('number of views',COUNT_MEASURE(0.));
#20=SHAPE_REPRESENTATION_RELATIONSHIP('None',
'relationship between INPU6264EF85pfir-None and INPU6264EF85pfir-None',
#32,#21);
#21=ADVANCED_BREP_SHAPE_REPRESENTATION('INPU6264EF85pfir-None',(#49,#50,
#51),#257);
#22=SHAPE_DEFINITION_REPRESENTATION(#23,#32);
#23=PRODUCT_DEFINITION_SHAPE('','',#24);
#24=PRODUCT_DEFINITION(' ','',#26,#25);
#25=PRODUCT_DEFINITION_CONTEXT('part definition',#31,'design');
#26=PRODUCT_DEFINITION_FORMATION_WITH_SPECIFIED_SOURCE(' ',' ',#28,
 .NOT_KNOWN.);
#27=PRODUCT_RELATED_PRODUCT_CATEGORY('part','',(#28));
#28=PRODUCT('INPU6264EF85pfir','INPU6264EF85pfir',' ',(#29));
#29=PRODUCT_CONTEXT(' ',#31,'mechanical');
#30=APPLICATION_PROTOCOL_DEFINITION('international standard',
'automotive_design',2010,#31);
#31=APPLICATION_CONTEXT(
'core data for automotive mechanical design processes');
#32=SHAPE_REPRESENTATION('INPU6264EF85pfir-None',(#164),#257);
#33=VERTEX_LOOP('',#124);
#34=SURFACE_STYLE_USAGE(.BOTH.,#37);
#35=SURFACE_STYLE_USAGE(.BOTH.,#38);
#36=SURFACE_STYLE_USAGE(.BOTH.,#39);
#37=SURFACE_SIDE_STYLE('',(#40));
#38=SURFACE_SIDE_STYLE('',(#41));
#39=SURFACE_SIDE_STYLE('',(#42));
#40=SURFACE_STYLE_FILL_AREA(#43);
#41=SURFACE_STYLE_FILL_AREA(#44);
#42=SURFACE_STYLE_FILL_AREA(#45);
#43=FILL_AREA_STYLE('',(#46));
#44=FILL_AREA_STYLE('',(#47));
#45=FILL_AREA_STYLE('',(#48));
#46=FILL_AREA_STYLE_COLOUR('',#159);
#47=FILL_AREA_STYLE_COLOUR('',#159);
#48=FILL_AREA_STYLE_COLOUR('',#160);
#49=MANIFOLD_SOLID_BREP('NOCUT',#52);
#50=MANIFOLD_SOLID_BREP('NOCUT',#53);
#51=MANIFOLD_SOLID_BREP('CUT',#54);
#52=CLOSED_SHELL('',(#70,#71,#72,#73));
#53=CLOSED_SHELL('',(#74,#75,#76));
#54=CLOSED_SHELL('',(#77,#78,#79));
#55=CYLINDRICAL_SURFACE('',#173,3.96875);
#56=CYLINDRICAL_SURFACE('',#177,3.96875);
#57=CONICAL_SURFACE('',#171,3.96875,44.9999999999999);
#58=CONICAL_SURFACE('',#181,3.5527136788005E-15,84.9999999999999);
#59=CONICAL_SURFACE('',#183,3.96875000000001,0.0100000000000024);
#60=FACE_BOUND('',#91,.T.);
#61=FACE_BOUND('',#92,.T.);
#62=FACE_BOUND('',#93,.T.);
#63=FACE_BOUND('',#94,.T.);
#64=FACE_BOUND('',#96,.T.);
#65=FACE_BOUND('',#97,.T.);
#66=FACE_BOUND('',#100,.T.);
#67=FACE_BOUND('',#33,.T.);
#68=FACE_BOUND('',#101,.T.);
#69=FACE_BOUND('',#102,.T.);
#70=ADVANCED_FACE('',(#85),#80,.T.);
#71=ADVANCED_FACE('',(#60,#61),#57,.T.);
#72=ADVANCED_FACE('',(#62,#63),#55,.T.);
#73=ADVANCED_FACE('',(#86),#81,.F.);
#74=ADVANCED_FACE('',(#64,#65),#56,.T.);
#75=ADVANCED_FACE('',(#87),#82,.T.);
#76=ADVANCED_FACE('',(#88),#83,.T.);
#77=ADVANCED_FACE('',(#66,#67),#58,.F.);
#78=ADVANCED_FACE('',(#68,#69),#59,.T.);
#79=ADVANCED_FACE('',(#89),#84,.F.);
#80=PLANE('',#169);
#81=PLANE('',#174);
#82=PLANE('',#178);
#83=PLANE('',#179);
#84=PLANE('',#184);
#85=FACE_OUTER_BOUND('',#90,.T.);
#86=FACE_OUTER_BOUND('',#95,.T.);
#87=FACE_OUTER_BOUND('',#98,.T.);
#88=FACE_OUTER_BOUND('',#99,.T.);
#89=FACE_OUTER_BOUND('',#103,.T.);
#90=EDGE_LOOP('',(#104));
#91=EDGE_LOOP('',(#105));
#92=EDGE_LOOP('',(#106));
#93=EDGE_LOOP('',(#107));
#94=EDGE_LOOP('',(#108));
#95=EDGE_LOOP('',(#109));
#96=EDGE_LOOP('',(#110));
#97=EDGE_LOOP('',(#111));
#98=EDGE_LOOP('',(#112));
#99=EDGE_LOOP('',(#113));
#100=EDGE_LOOP('',(#114));
#101=EDGE_LOOP('',(#115));
#102=EDGE_LOOP('',(#116));
#103=EDGE_LOOP('',(#117));
#104=ORIENTED_EDGE('',*,*,#126,.F.);
#105=ORIENTED_EDGE('',*,*,#126,.T.);
#106=ORIENTED_EDGE('',*,*,#127,.F.);
#107=ORIENTED_EDGE('',*,*,#128,.F.);
#108=ORIENTED_EDGE('',*,*,#127,.T.);
#109=ORIENTED_EDGE('',*,*,#128,.T.);
#110=ORIENTED_EDGE('',*,*,#129,.F.);
#111=ORIENTED_EDGE('',*,*,#130,.F.);
#112=ORIENTED_EDGE('',*,*,#129,.T.);
#113=ORIENTED_EDGE('',*,*,#130,.T.);
#114=ORIENTED_EDGE('',*,*,#131,.T.);
#115=ORIENTED_EDGE('',*,*,#132,.T.);
#116=ORIENTED_EDGE('',*,*,#131,.F.);
#117=ORIENTED_EDGE('',*,*,#132,.F.);
#118=VERTEX_POINT('',#232);
#119=VERTEX_POINT('',#235);
#120=VERTEX_POINT('',#238);
#121=VERTEX_POINT('',#242);
#122=VERTEX_POINT('',#244);
#123=VERTEX_POINT('',#249);
#124=VERTEX_POINT('',#250);
#125=VERTEX_POINT('',#253);
#126=EDGE_CURVE('',#118,#118,#133,.T.);
#127=EDGE_CURVE('',#119,#119,#134,.T.);
#128=EDGE_CURVE('',#120,#120,#135,.T.);
#129=EDGE_CURVE('',#121,#121,#136,.T.);
#130=EDGE_CURVE('',#122,#122,#137,.T.);
#131=EDGE_CURVE('',#123,#123,#138,.T.);
#132=EDGE_CURVE('',#125,#125,#139,.T.);
#133=CIRCLE('',#168,3.66395);
#134=CIRCLE('',#170,3.96875);
#135=CIRCLE('',#172,3.96875);
#136=CIRCLE('',#175,3.96875);
#137=CIRCLE('',#176,3.96875);
#138=CIRCLE('',#180,3.96875000000001);
#139=CIRCLE('',#182,3.95877544322358);
#140=PRESENTATION_LAYER_ASSIGNMENT('1','Layer 1',(#165,#166,#167,#49));
#141=PRESENTATION_LAYER_ASSIGNMENT('2','Layer 2',(#50));
#142=PRESENTATION_LAYER_ASSIGNMENT('3','Layer 3',(#51));
#143=STYLED_ITEM('',(#149),#165);
#144=STYLED_ITEM('',(#150),#166);
#145=STYLED_ITEM('',(#151),#167);
#146=STYLED_ITEM('',(#152),#49);
#147=STYLED_ITEM('',(#153),#50);
#148=STYLED_ITEM('',(#154),#51);
#149=PRESENTATION_STYLE_ASSIGNMENT((#155));
#150=PRESENTATION_STYLE_ASSIGNMENT((#156));
#151=PRESENTATION_STYLE_ASSIGNMENT((#157));
#152=PRESENTATION_STYLE_ASSIGNMENT((#34));
#153=PRESENTATION_STYLE_ASSIGNMENT((#35));
#154=PRESENTATION_STYLE_ASSIGNMENT((#36));
#155=CURVE_STYLE('',#161,POSITIVE_LENGTH_MEASURE(0.18),#158);
#156=CURVE_STYLE('',#162,POSITIVE_LENGTH_MEASURE(0.18),#158);
#157=CURVE_STYLE('',#163,POSITIVE_LENGTH_MEASURE(0.18),#158);
#158=COLOUR_RGB('Pale Maroon',0.811749446860456,0.603921568627451,0.611749446860456);
#159=COLOUR_RGB('Medium Gray',0.490196078431373,0.490196078431373,0.490196078431373);
#160=COLOUR_RGB('Light Gray',0.8,0.8,0.8);
#161=DRAUGHTING_PRE_DEFINED_CURVE_FONT('continuous');
#162=DRAUGHTING_PRE_DEFINED_CURVE_FONT('continuous');
#163=DRAUGHTING_PRE_DEFINED_CURVE_FONT('continuous');
#164=AXIS2_PLACEMENT_3D('',#227,#185,#186);
#165=AXIS2_PLACEMENT_3D('PCS',#228,#187,#188);
#166=AXIS2_PLACEMENT_3D('MCS',#229,#189,#190);
#167=AXIS2_PLACEMENT_3D('CIP',#230,#191,#192);
#168=AXIS2_PLACEMENT_3D('',#231,#193,#194);
#169=AXIS2_PLACEMENT_3D('',#233,#195,#196);
#170=AXIS2_PLACEMENT_3D('',#234,#197,#198);
#171=AXIS2_PLACEMENT_3D('',#236,#199,#200);
#172=AXIS2_PLACEMENT_3D('',#237,#201,#202);
#173=AXIS2_PLACEMENT_3D('',#239,#203,#204);
#174=AXIS2_PLACEMENT_3D('',#240,#205,#206);
#175=AXIS2_PLACEMENT_3D('',#241,#207,#208);
#176=AXIS2_PLACEMENT_3D('',#243,#209,#210);
#177=AXIS2_PLACEMENT_3D('',#245,#211,#212);
#178=AXIS2_PLACEMENT_3D('',#246,#213,#214);
#179=AXIS2_PLACEMENT_3D('',#247,#215,#216);
#180=AXIS2_PLACEMENT_3D('',#248,#217,#218);
#181=AXIS2_PLACEMENT_3D('',#251,#219,#220);
#182=AXIS2_PLACEMENT_3D('',#252,#221,#222);
#183=AXIS2_PLACEMENT_3D('',#254,#223,#224);
#184=AXIS2_PLACEMENT_3D('',#255,#225,#226);
#185=DIRECTION('',(0.,0.,1.));
#186=DIRECTION('',(1.,0.,0.));
#187=DIRECTION('',(0.,0.,1.));
#188=DIRECTION('',(1.,0.,0.));
#189=DIRECTION('',(0.,0.,1.));
#190=DIRECTION('',(1.,0.,0.));
#191=DIRECTION('',(0.,0.,1.));
#192=DIRECTION('',(1.,0.,0.));
#193=DIRECTION('',(0.,0.,-1.));
#194=DIRECTION('',(-1.,0.,0.));
#195=DIRECTION('',(0.,0.,1.));
#196=DIRECTION('',(1.,0.,0.));
#197=DIRECTION('',(0.,0.,-1.));
#198=DIRECTION('',(-1.,0.,0.));
#199=DIRECTION('',(0.,0.,-1.));
#200=DIRECTION('',(-1.,0.,3.45573201551705E-17));
#201=DIRECTION('',(0.,0.,-1.));
#202=DIRECTION('',(1.,0.,0.));
#203=DIRECTION('',(0.,0.,-1.));
#204=DIRECTION('',(-1.,0.,0.));
#205=DIRECTION('',(0.,0.,1.));
#206=DIRECTION('',(1.,0.,0.));
#207=DIRECTION('',(0.,0.,-1.));
#208=DIRECTION('',(-1.,0.,0.));
#209=DIRECTION('',(0.,0.,1.));
#210=DIRECTION('',(1.,0.,0.));
#211=DIRECTION('',(0.,0.,-1.));
#212=DIRECTION('',(-1.,0.,0.));
#213=DIRECTION('',(0.,0.,-1.));
#214=DIRECTION('',(-1.,0.,0.));
#215=DIRECTION('',(0.,0.,1.));
#216=DIRECTION('',(1.,0.,0.));
#217=DIRECTION('',(0.,0.,-1.));
#218=DIRECTION('',(-1.,0.,0.));
#219=DIRECTION('',(0.,0.,-1.));
#220=DIRECTION('',(-1.,0.,-6.07074554001038E-18));
#221=DIRECTION('',(0.,0.,-1.));
#222=DIRECTION('',(-1.,0.,0.));
#223=DIRECTION('',(0.,0.,-1.));
#224=DIRECTION('',(-1.,0.,2.67957328570998E-14));
#225=DIRECTION('',(0.,0.,-1.));
#226=DIRECTION('',(-1.,0.,0.));
#227=CARTESIAN_POINT('',(0.,0.,0.));
#228=CARTESIAN_POINT('',(0.,0.,36.));
#229=CARTESIAN_POINT('',(0.,0.,0.));
#230=CARTESIAN_POINT('',(0.,0.,-65.6));
#231=CARTESIAN_POINT('',(0.,0.,36.));
#232=CARTESIAN_POINT('',(-3.66395,0.,36.));
#233=CARTESIAN_POINT('',(3.66395,0.,36.));
#234=CARTESIAN_POINT('',(0.,0.,35.6952));
#235=CARTESIAN_POINT('',(-3.96875,0.,35.6952));
#236=CARTESIAN_POINT('',(0.,0.,35.6952));
#237=CARTESIAN_POINT('',(0.,0.,0.));
#238=CARTESIAN_POINT('',(3.96875,0.,0.));
#239=CARTESIAN_POINT('',(0.,0.,0.));
#240=CARTESIAN_POINT('',(0.,0.,0.));
#241=CARTESIAN_POINT('',(0.,0.,-8.45));
#242=CARTESIAN_POINT('',(-3.96875,0.,-8.45));
#243=CARTESIAN_POINT('',(0.,0.,0.));
#244=CARTESIAN_POINT('',(3.96875,0.,0.));
#245=CARTESIAN_POINT('',(0.,0.,0.));
#246=CARTESIAN_POINT('',(3.95877544322358,0.,-8.45));
#247=CARTESIAN_POINT('',(0.,0.,0.));
#248=CARTESIAN_POINT('',(0.,0.,-65.6));
#249=CARTESIAN_POINT('',(-3.96875000000001,0.,-65.6));
#250=CARTESIAN_POINT('',(3.5527136788005E-15,0.,-65.2527793666315));
#251=CARTESIAN_POINT('',(0.,0.,-65.2527793666315));
#252=CARTESIAN_POINT('',(0.,0.,-8.45));
#253=CARTESIAN_POINT('',(-3.95877544322358,0.,-8.45));
#254=CARTESIAN_POINT('',(0.,0.,-65.6));
#255=CARTESIAN_POINT('',(0.,0.,-8.45));
#256=MECHANICAL_DESIGN_GEOMETRIC_PRESENTATION_REPRESENTATION('',(#143,#144,
#145,#146,#147,#148),#257);
#257=(
GEOMETRIC_REPRESENTATION_CONTEXT(3)
GLOBAL_UNCERTAINTY_ASSIGNED_CONTEXT((#258))
GLOBAL_UNIT_ASSIGNED_CONTEXT((#264,#260,#259))
REPRESENTATION_CONTEXT('A345.313D7S','TOP_LEVEL_ASSEMBLY_PART')
);
#258=UNCERTAINTY_MEASURE_WITH_UNIT(LENGTH_MEASURE(2.E-5),#264,
'DISTANCE_ACCURACY_VALUE','Maximum Tolerance applied to model');
#259=(
NAMED_UNIT(*)
SI_UNIT($,.STERADIAN.)
SOLID_ANGLE_UNIT()
);
#260=(
CONVERSION_BASED_UNIT('DEGREE',#262)
NAMED_UNIT(#261)
PLANE_ANGLE_UNIT()
);
#261=DIMENSIONAL_EXPONENTS(0.,0.,0.,0.,0.,0.,0.);
#262=PLANE_ANGLE_MEASURE_WITH_UNIT(PLANE_ANGLE_MEASURE(0.0174532925),#263);
#263=(
NAMED_UNIT(*)
PLANE_ANGLE_UNIT()
SI_UNIT($,.RADIAN.)
);
#264=(
LENGTH_UNIT()
NAMED_UNIT(*)
SI_UNIT(.MILLI.,.METRE.)
);
ENDSEC;
END-ISO-10303-21;
